  0
SECTION
  2
HEADER
  9
$ACADVER
  1
AC1009
  9
$DWGCODEPAGE
  3
ansi_1250
  9
$INSBASE
 10
0.0
 20
0.0
 30
0.0
  9
$EXTMIN
 10
1.000000000000000E+20
 20
1.000000000000000E+20
 30
1.000000000000000E+20
  9
$EXTMAX
 10
-1.000000000000000E+20
 20
-1.000000000000000E+20
 30
-1.000000000000000E+20
  9
$LIMMIN
 10
-1.9769334
 20
-5.3740157
  9
$LIMMAX
 10
29.3088538
 20
14.9833807
  9
$ORTHOMODE
 70
     0
  9
$REGENMODE
 70
     1
  9
$FILLMODE
 70
     1
  9
$QTEXTMODE
 70
     0
  9
$MIRRTEXT
 70
     1
  9
$DRAGMODE
 70
     2
  9
$LTSCALE
 40
1.0
  9
$OSMODE
 70
    37
  9
$ATTMODE
 70
     1
  9
$TEXTSIZE
 40
2.5
  9
$TRACEWID
 40
1.0
  9
$TEXTSTYLE
  7
STANDARD
  9
$CLAYER
  8
0
  9
$CELTYPE
  6
BYLAYER
  9
$CECOLOR
 62
   256
  9
$DIMSCALE
 40
1.0
  9
$DIMASZ
 40
2.5
  9
$DIMEXO
 40
0.625
  9
$DIMDLI
 40
3.75
  9
$DIMRND
 40
0.0
  9
$DIMDLE
 40
0.0
  9
$DIMEXE
 40
1.25
  9
$DIMTP
 40
0.0
  9
$DIMTM
 40
0.0
  9
$DIMTXT
 40
2.5
  9
$DIMCEN
 40
2.5
  9
$DIMTSZ
 40
0.0
  9
$DIMTOL
 70
     0
  9
$DIMLIM
 70
     0
  9
$DIMTIH
 70
     0
  9
$DIMTOH
 70
     0
  9
$DIMSE1
 70
     0
  9
$DIMSE2
 70
     0
  9
$DIMTAD
 70
     1
  9
$DIMZIN
 70
     8
  9
$DIMBLK
  1

  9
$DIMASO
 70
     1
  9
$DIMSHO
 70
     1
  9
$DIMPOST
  1

  9
$DIMAPOST
  1

  9
$DIMALT
 70
     0
  9
$DIMALTD
 70
     3
  9
$DIMALTF
 40
0.03937007874016
  9
$DIMLFAC
 40
1.0
  9
$DIMTOFL
 70
     1
  9
$DIMTVP
 40
0.0
  9
$DIMTIX
 70
     0
  9
$DIMSOXD
 70
     0
  9
$DIMSAH
 70
     0
  9
$DIMBLK1
  1

  9
$DIMBLK2
  1

  9
$DIMSTYLE
  2
ISO-25
  9
$DIMCLRD
 70
     0
  9
$DIMCLRE
 70
     0
  9
$DIMCLRT
 70
     0
  9
$DIMTFAC
 40
1.0
  9
$DIMGAP
 40
0.625
  9
$LUNITS
 70
     2
  9
$LUPREC
 70
     4
  9
$SKETCHINC
 40
1.0
  9
$FILLETRAD
 40
10.0
  9
$AUNITS
 70
     0
  9
$AUPREC
 70
     0
  9
$MENU
  1
.
  9
$ELEVATION
 40
0.0
  9
$PELEVATION
 40
0.0
  9
$THICKNESS
 40
0.0
  9
$LIMCHECK
 70
     0
  9
$CHAMFERA
 40
0.0
  9
$CHAMFERB
 40
0.0
  9
$SKPOLY
 70
     0
  9
$TDCREATE
 40
2457471.487276782
  9
$TDUPDATE
 40
2457471.487281539
  9
$TDINDWG
 40
0.0000000116
  9
$TDUSRTIMER
 40
0.0000000116
  9
$USRTIMER
 70
     1
  9
$ANGBASE
 50
0.0
  9
$ANGDIR
 70
     0
  9
$PDMODE
 70
     0
  9
$PDSIZE
 40
0.0
  9
$PLINEWID
 40
0.0
  9
$COORDS
 70
     1
  9
$SPLFRAME
 70
     0
  9
$SPLINETYPE
 70
     6
  9
$SPLINESEGS
 70
     8
  9
$ATTDIA
 70
     0
  9
$ATTREQ
 70
     1
  9
$HANDLING
 70
     1
  9
$HANDSEED
  5
EBB
  9
$SURFTAB1
 70
     6
  9
$SURFTAB2
 70
     6
  9
$SURFTYPE
 70
     6
  9
$SURFU
 70
     6
  9
$SURFV
 70
     6
  9
$UCSNAME
  2

  9
$UCSORG
 10
0.0
 20
0.0
 30
0.0
  9
$UCSXDIR
 10
1.0
 20
0.0
 30
0.0
  9
$UCSYDIR
 10
0.0
 20
1.0
 30
0.0
  9
$PUCSNAME
  2

  9
$PUCSORG
 10
0.0
 20
0.0
 30
0.0
  9
$PUCSXDIR
 10
1.0
 20
0.0
 30
0.0
  9
$PUCSYDIR
 10
0.0
 20
1.0
 30
0.0
  9
$USERI1
 70
     0
  9
$USERI2
 70
     0
  9
$USERI3
 70
     0
  9
$USERI4
 70
     0
  9
$USERI5
 70
     0
  9
$USERR1
 40
0.0
  9
$USERR2
 40
0.0
  9
$USERR3
 40
0.0
  9
$USERR4
 40
0.0
  9
$USERR5
 40
0.0
  9
$WORLDVIEW
 70
     1
  9
$SHADEDGE
 70
     3
  9
$SHADEDIF
 70
    70
  9
$TILEMODE
 70
     1
  9
$MAXACTVP
 70
    64
  9
$PLIMCHECK
 70
     0
  9
$PEXTMIN
 10
1.000000000000000E+20
 20
1.000000000000000E+20
 30
1.000000000000000E+20
  9
$PEXTMAX
 10
-1.000000000000000E+20
 20
-1.000000000000000E+20
 30
-1.000000000000000E+20
  9
$PLIMMIN
 10
0.0
 20
0.0
  9
$PLIMMAX
 10
420.0
 20
297.0
  9
$UNITMODE
 70
     0
  9
$VISRETAIN
 70
     1
  9
$PLINEGEN
 70
     0
  9
$PSLTSCALE
 70
     1
  0
ENDSEC
  0
SECTION
  2
TABLES
  0
TABLE
  2
VPORT
 70
     1
  0
VPORT
  2
*ACTIVE
 70
     0
 10
0.0
 20
0.0
 11
1.0
 21
1.0
 12
344.1869158878504
 22
148.5
 13
0.0
 23
0.0
 14
10.0
 24
10.0
 15
10.0
 25
10.0
 16
0.0
 26
0.0
 36
1.0
 17
0.0
 27
0.0
 37
0.0
 40
297.0
 41
1.972972972850329
 42
50.0
 43
0.0
 44
0.0
 50
0.0
 51
0.0
 71
     0
 72
   100
 73
     1
 74
     3
 75
     0
 76
     0
 77
     0
 78
     0
  0
ENDTAB
  0
TABLE
  2
LTYPE
 70
     1
  0
LTYPE
  2
CONTINUOUS
 70
     0
  3
Solid line
 72
    65
 73
     0
 40
0.0
  0
ENDTAB
  0
TABLE
  2
LAYER
 70
     2
  0
LAYER
  2
0
 70
     0
 62
     7
  6
CONTINUOUS
  0
LAYER
  2
TOPSOLDER
 70
     0
 62
   216
  6
CONTINUOUS
  0
ENDTAB
  0
TABLE
  2
STYLE
 70
     1
  0
STYLE
  2
STANDARD
 70
     0
 40
0.0
 41
1.0
 50
0.0
 71
     0
 42
2.5
  3
txt
  4

  0
ENDTAB
  0
TABLE
  2
VIEW
 70
     0
  0
ENDTAB
  0
TABLE
  2
UCS
 70
     0
  0
ENDTAB
  0
TABLE
  2
APPID
 70
     1
  0
APPID
  2
ACAD
 70
     0
  0
ENDTAB
  0
TABLE
  2
DIMSTYLE
 70
     1
  0
DIMSTYLE
  2
ISO-25
 70
     0
  3

  4

  5

  6

  7

 40
1.0
 41
2.5
 42
0.625
 43
3.75
 44
1.25
 45
0.0
 46
0.0
 47
0.0
 48
0.0
140
2.5
141
2.5
142
0.0
143
0.03937007874016
144
1.0
145
0.0
146
1.0
147
0.625
 71
     0
 72
     0
 73
     0
 74
     0
 75
     0
 76
     0
 77
     1
 78
     8
170
     0
171
     3
172
     1
173
     0
174
     0
175
     0
176
     0
177
     0
178
     0
  0
ENDTAB
  0
ENDSEC
  0
SECTION
  2
BLOCKS
  0
BLOCK
  8
0
  2
$MODEL_SPACE
 70
     0
 10
0.0
 20
0.0
 30
0.0
  3
$MODEL_SPACE
  1

  0
ENDBLK
  5
21
  8
0
  0
BLOCK
 67
     1
  8
0
  2
$PAPER_SPACE
 70
     0
 10
0.0
 20
0.0
 30
0.0
  3
$PAPER_SPACE
  1

  0
ENDBLK
  5
1D
 67
     1
  8
0
  0
BLOCK
  8
0
  2
C0603_B_1
 70
     0
 10
0.0
 20
0.0
 30
0.0
  3
C0603_B_1
  1

  0
ENDBLK
  5
6E
  8
0
  0
BLOCK
  8
0
  2
C0603_B_2
 70
     0
 10
0.0
 20
0.0
 30
0.0
  3
C0603_B_2
  1

  0
ENDBLK
  5
72
  8
0
  0
BLOCK
  8
0
  2
R0805_3
 70
     0
 10
0.0
 20
0.0
 30
0.0
  3
R0805_3
  1

  0
LINE
  5
77
  8
TOPSOLDER
 10
-0.0669685
 20
0.0279685
 30
0.0
 11
-0.0669685
 21
-0.0279685
 31
0.0
  0
LINE
  5
78
  8
TOPSOLDER
 10
-0.0669685
 20
-0.0279685
 30
0.0
 11
-0.0230315
 21
-0.0279685
 31
0.0
  0
LINE
  5
79
  8
TOPSOLDER
 10
-0.0230315
 20
-0.0279685
 30
0.0
 11
-0.0230315
 21
0.0279685
 31
0.0
  0
LINE
  5
7A
  8
TOPSOLDER
 10
-0.0230315
 20
0.0279685
 30
0.0
 11
-0.0669685
 21
0.0279685
 31
0.0
  0
LINE
  5
7B
  8
TOPSOLDER
 10
0.0230315
 20
0.0279685
 30
0.0
 11
0.0230315
 21
-0.0279685
 31
0.0
  0
LINE
  5
7C
  8
TOPSOLDER
 10
0.0230315
 20
-0.0279685
 30
0.0
 11
0.0669685
 21
-0.0279685
 31
0.0
  0
LINE
  5
7D
  8
TOPSOLDER
 10
0.0669685
 20
-0.0279685
 30
0.0
 11
0.0669685
 21
0.0279685
 31
0.0
  0
LINE
  5
7E
  8
TOPSOLDER
 10
0.0669685
 20
0.0279685
 30
0.0
 11
0.0230315
 21
0.0279685
 31
0.0
  0
ENDBLK
  5
76
  8
0
  0
BLOCK
  8
0
  2
TAJB_B_4
 70
     0
 10
0.0
 20
0.0
 30
0.0
  3
TAJB_B_4
  1

  0
ENDBLK
  5
82
  8
0
  0
BLOCK
  8
0
  2
TAJB_B_5
 70
     0
 10
0.0
 20
0.0
 30
0.0
  3
TAJB_B_5
  1

  0
ENDBLK
  5
86
  8
0
  0
BLOCK
  8
0
  2
LLP48_B_6
 70
     0
 10
0.0
 20
0.0
 30
0.0
  3
LLP48_B_6
  1

  0
ENDBLK
  5
8A
  8
0
  0
BLOCK
  8
0
  2
QFN_44_0_5_7
 70
     0
 10
0.0
 20
0.0
 30
0.0
  3
QFN_44_0_5_7
  1

  0
LINE
  5
8F
  8
TOPSOLDER
 10
-0.0011907
 20
-0.1429042
 30
0.0
 11
-0.0290279
 21
-0.1760793
 31
0.0
  0
LINE
  5
90
  8
TOPSOLDER
 10
-0.0290279
 20
-0.1760793
 30
0.0
 11
-0.0175675
 21
-0.1856958
 31
0.0
  0
LINE
  5
91
  8
TOPSOLDER
 10
-0.0175675
 20
-0.1856958
 30
0.0
 11
0.0102697
 21
-0.1525207
 31
0.0
  0
LINE
  5
92
  8
TOPSOLDER
 10
0.0102697
 20
-0.1525207
 30
0.0
 11
-0.0011907
 21
-0.1429042
 31
0.0
  0
LINE
  5
93
  8
TOPSOLDER
 10
-0.0162702
 20
-0.1302509
 30
0.0
 11
-0.0441074
 21
-0.163426
 31
0.0
  0
LINE
  5
94
  8
TOPSOLDER
 10
-0.0441074
 20
-0.163426
 30
0.0
 11
-0.032647
 21
-0.1730425
 31
0.0
  0
LINE
  5
95
  8
TOPSOLDER
 10
-0.032647
 20
-0.1730425
 30
0.0
 11
-0.0048098
 21
-0.1398674
 31
0.0
  0
LINE
  5
96
  8
TOPSOLDER
 10
-0.0048098
 20
-0.1398674
 30
0.0
 11
-0.0162702
 21
-0.1302509
 31
0.0
  0
LINE
  5
97
  8
TOPSOLDER
 10
-0.0313498
 20
-0.1175976
 30
0.0
 11
-0.059187
 21
-0.1507727
 31
0.0
  0
LINE
  5
98
  8
TOPSOLDER
 10
-0.059187
 20
-0.1507727
 30
0.0
 11
-0.0477266
 21
-0.1603892
 31
0.0
  0
LINE
  5
99
  8
TOPSOLDER
 10
-0.0477266
 20
-0.1603892
 30
0.0
 11
-0.0198894
 21
-0.1272141
 31
0.0
  0
LINE
  5
9A
  8
TOPSOLDER
 10
-0.0198894
 20
-0.1272141
 30
0.0
 11
-0.0313498
 21
-0.1175976
 31
0.0
  0
LINE
  5
9B
  8
TOPSOLDER
 10
-0.0464294
 20
-0.1049443
 30
0.0
 11
-0.0742666
 21
-0.1381194
 31
0.0
  0
LINE
  5
9C
  8
TOPSOLDER
 10
-0.0742666
 20
-0.1381194
 30
0.0
 11
-0.0628062
 21
-0.1477359
 31
0.0
  0
LINE
  5
9D
  8
TOPSOLDER
 10
-0.0628062
 20
-0.1477359
 30
0.0
 11
-0.034969
 21
-0.1145608
 31
0.0
  0
LINE
  5
9E
  8
TOPSOLDER
 10
-0.034969
 20
-0.1145608
 30
0.0
 11
-0.0464294
 21
-0.1049443
 31
0.0
  0
LINE
  5
9F
  8
TOPSOLDER
 10
-0.0615091
 20
-0.0922909
 30
0.0
 11
-0.0893463
 21
-0.125466
 31
0.0
  0
LINE
  5
A0
  8
TOPSOLDER
 10
-0.0893463
 20
-0.125466
 30
0.0
 11
-0.0778859
 21
-0.1350825
 31
0.0
  0
LINE
  5
A1
  8
TOPSOLDER
 10
-0.0778859
 20
-0.1350825
 30
0.0
 11
-0.0500487
 21
-0.1019074
 31
0.0
  0
LINE
  5
A2
  8
TOPSOLDER
 10
-0.0500487
 20
-0.1019074
 30
0.0
 11
-0.0615091
 21
-0.0922909
 31
0.0
  0
LINE
  5
A3
  8
TOPSOLDER
 10
-0.0916683
 20
-0.0669844
 30
0.0
 11
-0.1195055
 21
-0.1001595
 31
0.0
  0
LINE
  5
A4
  8
TOPSOLDER
 10
-0.1195055
 20
-0.1001595
 30
0.0
 11
-0.1080451
 21
-0.109776
 31
0.0
  0
LINE
  5
A5
  8
TOPSOLDER
 10
-0.1080451
 20
-0.109776
 30
0.0
 11
-0.0802079
 21
-0.0766009
 31
0.0
  0
LINE
  5
A6
  8
TOPSOLDER
 10
-0.0802079
 20
-0.0766009
 30
0.0
 11
-0.0916683
 21
-0.0669844
 31
0.0
  0
LINE
  5
A7
  8
TOPSOLDER
 10
-0.106748
 20
-0.0543311
 30
0.0
 11
-0.1345852
 21
-0.0875062
 31
0.0
  0
LINE
  5
A8
  8
TOPSOLDER
 10
-0.1345852
 20
-0.0875062
 30
0.0
 11
-0.1231248
 21
-0.0971227
 31
0.0
  0
LINE
  5
A9
  8
TOPSOLDER
 10
-0.1231248
 20
-0.0971227
 30
0.0
 11
-0.0952876
 21
-0.0639476
 31
0.0
  0
LINE
  5
AA
  8
TOPSOLDER
 10
-0.0952876
 20
-0.0639476
 30
0.0
 11
-0.106748
 21
-0.0543311
 31
0.0
  0
LINE
  5
AB
  8
TOPSOLDER
 10
-0.1218275
 20
-0.0416778
 30
0.0
 11
-0.1496647
 21
-0.0748529
 31
0.0
  0
LINE
  5
AC
  8
TOPSOLDER
 10
-0.1496647
 20
-0.0748529
 30
0.0
 11
-0.1382043
 21
-0.0844694
 31
0.0
  0
LINE
  5
AD
  8
TOPSOLDER
 10
-0.1382043
 20
-0.0844694
 30
0.0
 11
-0.1103671
 21
-0.0512943
 31
0.0
  0
LINE
  5
AE
  8
TOPSOLDER
 10
-0.1103671
 20
-0.0512943
 30
0.0
 11
-0.1218275
 21
-0.0416778
 31
0.0
  0
LINE
  5
AF
  8
TOPSOLDER
 10
-0.1369072
 20
-0.0290244
 30
0.0
 11
-0.1647444
 21
-0.0621995
 31
0.0
  0
LINE
  5
B0
  8
TOPSOLDER
 10
-0.1647444
 20
-0.0621995
 30
0.0
 11
-0.153284
 21
-0.071816
 31
0.0
  0
LINE
  5
B1
  8
TOPSOLDER
 10
-0.153284
 20
-0.071816
 30
0.0
 11
-0.1254468
 21
-0.0386409
 31
0.0
  0
LINE
  5
B2
  8
TOPSOLDER
 10
-0.1254468
 20
-0.0386409
 30
0.0
 11
-0.1369072
 21
-0.0290244
 31
0.0
  0
LINE
  5
B3
  8
TOPSOLDER
 10
-0.1519867
 20
-0.0163712
 30
0.0
 11
-0.1798239
 21
-0.0495463
 31
0.0
  0
LINE
  5
B4
  8
TOPSOLDER
 10
-0.1798239
 20
-0.0495463
 30
0.0
 11
-0.1683635
 21
-0.0591628
 31
0.0
  0
LINE
  5
B5
  8
TOPSOLDER
 10
-0.1683635
 20
-0.0591628
 30
0.0
 11
-0.1405263
 21
-0.0259877
 31
0.0
  0
LINE
  5
B6
  8
TOPSOLDER
 10
-0.1405263
 20
-0.0259877
 30
0.0
 11
-0.1519867
 21
-0.0163712
 31
0.0
  0
LINE
  5
B7
  8
TOPSOLDER
 10
-0.0163711
 20
0.1519868
 30
0.0
 11
-0.0495462
 21
0.179824
 31
0.0
  0
LINE
  5
B8
  8
TOPSOLDER
 10
-0.0495462
 20
0.179824
 30
0.0
 11
-0.0591627
 21
0.1683636
 31
0.0
  0
LINE
  5
B9
  8
TOPSOLDER
 10
-0.0591627
 20
0.1683636
 30
0.0
 11
-0.0259876
 21
0.1405264
 31
0.0
  0
LINE
  5
BA
  8
TOPSOLDER
 10
-0.0259876
 20
0.1405264
 30
0.0
 11
-0.0163711
 21
0.1519868
 31
0.0
  0
LINE
  5
BB
  8
TOPSOLDER
 10
-0.0290244
 20
0.1369072
 30
0.0
 11
-0.0621995
 21
0.1647444
 31
0.0
  0
LINE
  5
BC
  8
TOPSOLDER
 10
-0.0621995
 20
0.1647444
 30
0.0
 11
-0.071816
 21
0.153284
 31
0.0
  0
LINE
  5
BD
  8
TOPSOLDER
 10
-0.071816
 20
0.153284
 30
0.0
 11
-0.0386409
 21
0.1254468
 31
0.0
  0
LINE
  5
BE
  8
TOPSOLDER
 10
-0.0386409
 20
0.1254468
 30
0.0
 11
-0.0290244
 21
0.1369072
 31
0.0
  0
LINE
  5
BF
  8
TOPSOLDER
 10
-0.0416777
 20
0.1218276
 30
0.0
 11
-0.0748528
 21
0.1496648
 31
0.0
  0
LINE
  5
C0
  8
TOPSOLDER
 10
-0.0748528
 20
0.1496648
 30
0.0
 11
-0.0844693
 21
0.1382044
 31
0.0
  0
LINE
  5
C1
  8
TOPSOLDER
 10
-0.0844693
 20
0.1382044
 30
0.0
 11
-0.0512942
 21
0.1103672
 31
0.0
  0
LINE
  5
C2
  8
TOPSOLDER
 10
-0.0512942
 20
0.1103672
 30
0.0
 11
-0.0416777
 21
0.1218276
 31
0.0
  0
LINE
  5
C3
  8
TOPSOLDER
 10
-0.054331
 20
0.1067479
 30
0.0
 11
-0.0875061
 21
0.1345851
 31
0.0
  0
LINE
  5
C4
  8
TOPSOLDER
 10
-0.0875061
 20
0.1345851
 30
0.0
 11
-0.0971226
 21
0.1231247
 31
0.0
  0
LINE
  5
C5
  8
TOPSOLDER
 10
-0.0971226
 20
0.1231247
 30
0.0
 11
-0.0639475
 21
0.0952875
 31
0.0
  0
LINE
  5
C6
  8
TOPSOLDER
 10
-0.0639475
 20
0.0952875
 30
0.0
 11
-0.054331
 21
0.1067479
 31
0.0
  0
LINE
  5
C7
  8
TOPSOLDER
 10
-0.0669844
 20
0.0916683
 30
0.0
 11
-0.1001595
 21
0.1195055
 31
0.0
  0
LINE
  5
C8
  8
TOPSOLDER
 10
-0.1001595
 20
0.1195055
 30
0.0
 11
-0.109776
 21
0.1080451
 31
0.0
  0
LINE
  5
C9
  8
TOPSOLDER
 10
-0.109776
 20
0.1080451
 30
0.0
 11
-0.0766009
 21
0.0802079
 31
0.0
  0
LINE
  5
CA
  8
TOPSOLDER
 10
-0.0766009
 20
0.0802079
 30
0.0
 11
-0.0669844
 21
0.0916683
 31
0.0
  0
LINE
  5
CB
  8
TOPSOLDER
 10
-0.1429042
 20
0.0011905
 30
0.0
 11
-0.1760793
 21
0.0290277
 31
0.0
  0
LINE
  5
CC
  8
TOPSOLDER
 10
-0.1760793
 20
0.0290277
 30
0.0
 11
-0.1856958
 21
0.0175673
 31
0.0
  0
LINE
  5
CD
  8
TOPSOLDER
 10
-0.1856958
 20
0.0175673
 30
0.0
 11
-0.1525207
 21
-0.0102699
 31
0.0
  0
LINE
  5
CE
  8
TOPSOLDER
 10
-0.1525207
 20
-0.0102699
 30
0.0
 11
-0.1429042
 21
0.0011905
 31
0.0
  0
LINE
  5
CF
  8
TOPSOLDER
 10
-0.1302509
 20
0.0162702
 30
0.0
 11
-0.163426
 21
0.0441074
 31
0.0
  0
LINE
  5
D0
  8
TOPSOLDER
 10
-0.163426
 20
0.0441074
 30
0.0
 11
-0.1730425
 21
0.032647
 31
0.0
  0
LINE
  5
D1
  8
TOPSOLDER
 10
-0.1730425
 20
0.032647
 30
0.0
 11
-0.1398674
 21
0.0048098
 31
0.0
  0
LINE
  5
D2
  8
TOPSOLDER
 10
-0.1398674
 20
0.0048098
 30
0.0
 11
-0.1302509
 21
0.0162702
 31
0.0
  0
LINE
  5
D3
  8
TOPSOLDER
 10
-0.1175975
 20
0.0313498
 30
0.0
 11
-0.1507726
 21
0.059187
 31
0.0
  0
LINE
  5
D4
  8
TOPSOLDER
 10
-0.1507726
 20
0.059187
 30
0.0
 11
-0.1603891
 21
0.0477266
 31
0.0
  0
LINE
  5
D5
  8
TOPSOLDER
 10
-0.1603891
 20
0.0477266
 30
0.0
 11
-0.127214
 21
0.0198894
 31
0.0
  0
LINE
  5
D6
  8
TOPSOLDER
 10
-0.127214
 20
0.0198894
 30
0.0
 11
-0.1175975
 21
0.0313498
 31
0.0
  0
LINE
  5
D7
  8
TOPSOLDER
 10
-0.1049443
 20
0.0464294
 30
0.0
 11
-0.1381194
 21
0.0742666
 31
0.0
  0
LINE
  5
D8
  8
TOPSOLDER
 10
-0.1381194
 20
0.0742666
 30
0.0
 11
-0.1477359
 21
0.0628062
 31
0.0
  0
LINE
  5
D9
  8
TOPSOLDER
 10
-0.1477359
 20
0.0628062
 30
0.0
 11
-0.1145608
 21
0.034969
 31
0.0
  0
LINE
  5
DA
  8
TOPSOLDER
 10
-0.1145608
 20
0.034969
 30
0.0
 11
-0.1049443
 21
0.0464294
 31
0.0
  0
LINE
  5
DB
  8
TOPSOLDER
 10
-0.0922909
 20
0.0615091
 30
0.0
 11
-0.125466
 21
0.0893463
 31
0.0
  0
LINE
  5
DC
  8
TOPSOLDER
 10
-0.125466
 20
0.0893463
 30
0.0
 11
-0.1350825
 21
0.0778859
 31
0.0
  0
LINE
  5
DD
  8
TOPSOLDER
 10
-0.1350825
 20
0.0778859
 30
0.0
 11
-0.1019074
 21
0.0500487
 31
0.0
  0
LINE
  5
DE
  8
TOPSOLDER
 10
-0.1019074
 20
0.0500487
 30
0.0
 11
-0.0922909
 21
0.0615091
 31
0.0
  0
LINE
  5
DF
  8
TOPSOLDER
 10
0.0011907
 20
0.1429041
 30
0.0
 11
0.0290279
 21
0.1760792
 31
0.0
  0
LINE
  5
E0
  8
TOPSOLDER
 10
0.0290279
 20
0.1760792
 30
0.0
 11
0.0175675
 21
0.1856957
 31
0.0
  0
LINE
  5
E1
  8
TOPSOLDER
 10
0.0175675
 20
0.1856957
 30
0.0
 11
-0.0102697
 21
0.1525206
 31
0.0
  0
LINE
  5
E2
  8
TOPSOLDER
 10
-0.0102697
 20
0.1525206
 30
0.0
 11
0.0011907
 21
0.1429041
 31
0.0
  0
LINE
  5
E3
  8
TOPSOLDER
 10
0.0162702
 20
0.1302509
 30
0.0
 11
0.0441074
 21
0.163426
 31
0.0
  0
LINE
  5
E4
  8
TOPSOLDER
 10
0.0441074
 20
0.163426
 30
0.0
 11
0.032647
 21
0.1730425
 31
0.0
  0
LINE
  5
E5
  8
TOPSOLDER
 10
0.032647
 20
0.1730425
 30
0.0
 11
0.0048098
 21
0.1398674
 31
0.0
  0
LINE
  5
E6
  8
TOPSOLDER
 10
0.0048098
 20
0.1398674
 30
0.0
 11
0.0162702
 21
0.1302509
 31
0.0
  0
LINE
  5
E7
  8
TOPSOLDER
 10
0.0313499
 20
0.1175975
 30
0.0
 11
0.0591871
 21
0.1507726
 31
0.0
  0
LINE
  5
E8
  8
TOPSOLDER
 10
0.0591871
 20
0.1507726
 30
0.0
 11
0.0477267
 21
0.1603891
 31
0.0
  0
LINE
  5
E9
  8
TOPSOLDER
 10
0.0477267
 20
0.1603891
 30
0.0
 11
0.0198895
 21
0.127214
 31
0.0
  0
LINE
  5
EA
  8
TOPSOLDER
 10
0.0198895
 20
0.127214
 30
0.0
 11
0.0313499
 21
0.1175975
 31
0.0
  0
LINE
  5
EB
  8
TOPSOLDER
 10
0.0464294
 20
0.1049441
 30
0.0
 11
0.0742666
 21
0.1381192
 31
0.0
  0
LINE
  5
EC
  8
TOPSOLDER
 10
0.0742666
 20
0.1381192
 30
0.0
 11
0.0628062
 21
0.1477357
 31
0.0
  0
LINE
  5
ED
  8
TOPSOLDER
 10
0.0628062
 20
0.1477357
 30
0.0
 11
0.034969
 21
0.1145606
 31
0.0
  0
LINE
  5
EE
  8
TOPSOLDER
 10
0.034969
 20
0.1145606
 30
0.0
 11
0.0464294
 21
0.1049441
 31
0.0
  0
LINE
  5
EF
  8
TOPSOLDER
 10
0.0615091
 20
0.0922909
 30
0.0
 11
0.0893463
 21
0.125466
 31
0.0
  0
LINE
  5
F0
  8
TOPSOLDER
 10
0.0893463
 20
0.125466
 30
0.0
 11
0.0778859
 21
0.1350825
 31
0.0
  0
LINE
  5
F1
  8
TOPSOLDER
 10
0.0778859
 20
0.1350825
 30
0.0
 11
0.0500487
 21
0.1019074
 31
0.0
  0
LINE
  5
F2
  8
TOPSOLDER
 10
0.0500487
 20
0.1019074
 30
0.0
 11
0.0615091
 21
0.0922909
 31
0.0
  0
LINE
  5
F3
  8
TOPSOLDER
 10
0.1519868
 20
0.0163711
 30
0.0
 11
0.179824
 21
0.0495462
 31
0.0
  0
LINE
  5
F4
  8
TOPSOLDER
 10
0.179824
 20
0.0495462
 30
0.0
 11
0.1683636
 21
0.0591627
 31
0.0
  0
LINE
  5
F5
  8
TOPSOLDER
 10
0.1683636
 20
0.0591627
 30
0.0
 11
0.1405264
 21
0.0259876
 31
0.0
  0
LINE
  5
F6
  8
TOPSOLDER
 10
0.1405264
 20
0.0259876
 30
0.0
 11
0.1519868
 21
0.0163711
 31
0.0
  0
LINE
  5
F7
  8
TOPSOLDER
 10
0.1369073
 20
0.0290243
 30
0.0
 11
0.1647445
 21
0.0621994
 31
0.0
  0
LINE
  5
F8
  8
TOPSOLDER
 10
0.1647445
 20
0.0621994
 30
0.0
 11
0.1532841
 21
0.0718159
 31
0.0
  0
LINE
  5
F9
  8
TOPSOLDER
 10
0.1532841
 20
0.0718159
 30
0.0
 11
0.1254469
 21
0.0386408
 31
0.0
  0
LINE
  5
FA
  8
TOPSOLDER
 10
0.1254469
 20
0.0386408
 30
0.0
 11
0.1369073
 21
0.0290243
 31
0.0
  0
LINE
  5
FB
  8
TOPSOLDER
 10
0.1218276
 20
0.0416777
 30
0.0
 11
0.1496648
 21
0.0748528
 31
0.0
  0
LINE
  5
FC
  8
TOPSOLDER
 10
0.1496648
 20
0.0748528
 30
0.0
 11
0.1382044
 21
0.0844693
 31
0.0
  0
LINE
  5
FD
  8
TOPSOLDER
 10
0.1382044
 20
0.0844693
 30
0.0
 11
0.1103672
 21
0.0512942
 31
0.0
  0
LINE
  5
FE
  8
TOPSOLDER
 10
0.1103672
 20
0.0512942
 30
0.0
 11
0.1218276
 21
0.0416777
 31
0.0
  0
LINE
  5
FF
  8
TOPSOLDER
 10
0.106748
 20
0.054331
 30
0.0
 11
0.1345852
 21
0.0875061
 31
0.0
  0
LINE
  5
100
  8
TOPSOLDER
 10
0.1345852
 20
0.0875061
 30
0.0
 11
0.1231248
 21
0.0971226
 31
0.0
  0
LINE
  5
101
  8
TOPSOLDER
 10
0.1231248
 20
0.0971226
 30
0.0
 11
0.0952876
 21
0.0639475
 31
0.0
  0
LINE
  5
102
  8
TOPSOLDER
 10
0.0952876
 20
0.0639475
 30
0.0
 11
0.106748
 21
0.054331
 31
0.0
  0
LINE
  5
103
  8
TOPSOLDER
 10
0.0916683
 20
0.0669843
 30
0.0
 11
0.1195055
 21
0.1001594
 31
0.0
  0
LINE
  5
104
  8
TOPSOLDER
 10
0.1195055
 20
0.1001594
 30
0.0
 11
0.1080451
 21
0.1097759
 31
0.0
  0
LINE
  5
105
  8
TOPSOLDER
 10
0.1080451
 20
0.1097759
 30
0.0
 11
0.0802079
 21
0.0766008
 31
0.0
  0
LINE
  5
106
  8
TOPSOLDER
 10
0.0802079
 20
0.0766008
 30
0.0
 11
0.0916683
 21
0.0669843
 31
0.0
  0
LINE
  5
107
  8
TOPSOLDER
 10
0.1429042
 20
-0.0011907
 30
0.0
 11
0.1760793
 21
-0.0290279
 31
0.0
  0
LINE
  5
108
  8
TOPSOLDER
 10
0.1760793
 20
-0.0290279
 30
0.0
 11
0.1856958
 21
-0.0175675
 31
0.0
  0
LINE
  5
109
  8
TOPSOLDER
 10
0.1856958
 20
-0.0175675
 30
0.0
 11
0.1525207
 21
0.0102697
 31
0.0
  0
LINE
  5
10A
  8
TOPSOLDER
 10
0.1525207
 20
0.0102697
 30
0.0
 11
0.1429042
 21
-0.0011907
 31
0.0
  0
LINE
  5
10B
  8
TOPSOLDER
 10
0.1302509
 20
-0.0162702
 30
0.0
 11
0.163426
 21
-0.0441074
 31
0.0
  0
LINE
  5
10C
  8
TOPSOLDER
 10
0.163426
 20
-0.0441074
 30
0.0
 11
0.1730425
 21
-0.032647
 31
0.0
  0
LINE
  5
10D
  8
TOPSOLDER
 10
0.1730425
 20
-0.032647
 30
0.0
 11
0.1398674
 21
-0.0048098
 31
0.0
  0
LINE
  5
10E
  8
TOPSOLDER
 10
0.1398674
 20
-0.0048098
 30
0.0
 11
0.1302509
 21
-0.0162702
 31
0.0
  0
LINE
  5
10F
  8
TOPSOLDER
 10
0.1175975
 20
-0.0313499
 30
0.0
 11
0.1507726
 21
-0.0591871
 31
0.0
  0
LINE
  5
110
  8
TOPSOLDER
 10
0.1507726
 20
-0.0591871
 30
0.0
 11
0.1603891
 21
-0.0477267
 31
0.0
  0
LINE
  5
111
  8
TOPSOLDER
 10
0.1603891
 20
-0.0477267
 30
0.0
 11
0.127214
 21
-0.0198895
 31
0.0
  0
LINE
  5
112
  8
TOPSOLDER
 10
0.127214
 20
-0.0198895
 30
0.0
 11
0.1175975
 21
-0.0313499
 31
0.0
  0
LINE
  5
113
  8
TOPSOLDER
 10
0.1049443
 20
-0.0464295
 30
0.0
 11
0.1381194
 21
-0.0742667
 31
0.0
  0
LINE
  5
114
  8
TOPSOLDER
 10
0.1381194
 20
-0.0742667
 30
0.0
 11
0.1477359
 21
-0.0628063
 31
0.0
  0
LINE
  5
115
  8
TOPSOLDER
 10
0.1477359
 20
-0.0628063
 30
0.0
 11
0.1145608
 21
-0.0349691
 31
0.0
  0
LINE
  5
116
  8
TOPSOLDER
 10
0.1145608
 20
-0.0349691
 30
0.0
 11
0.1049443
 21
-0.0464295
 31
0.0
  0
LINE
  5
117
  8
TOPSOLDER
 10
0.092291
 20
-0.0615092
 30
0.0
 11
0.1254661
 21
-0.0893464
 31
0.0
  0
LINE
  5
118
  8
TOPSOLDER
 10
0.1254661
 20
-0.0893464
 30
0.0
 11
0.1350826
 21
-0.077886
 31
0.0
  0
LINE
  5
119
  8
TOPSOLDER
 10
0.1350826
 20
-0.077886
 30
0.0
 11
0.1019075
 21
-0.0500488
 31
0.0
  0
LINE
  5
11A
  8
TOPSOLDER
 10
0.1019075
 20
-0.0500488
 30
0.0
 11
0.092291
 21
-0.0615092
 31
0.0
  0
LINE
  5
11B
  8
TOPSOLDER
 10
0.0796375
 20
-0.0765888
 30
0.0
 11
0.1128126
 21
-0.104426
 31
0.0
  0
LINE
  5
11C
  8
TOPSOLDER
 10
0.1128126
 20
-0.104426
 30
0.0
 11
0.1224291
 21
-0.0929656
 31
0.0
  0
LINE
  5
11D
  8
TOPSOLDER
 10
0.1224291
 20
-0.0929656
 30
0.0
 11
0.089254
 21
-0.0651284
 31
0.0
  0
LINE
  5
11E
  8
TOPSOLDER
 10
0.089254
 20
-0.0651284
 30
0.0
 11
0.0796375
 21
-0.0765888
 31
0.0
  0
LINE
  5
11F
  8
TOPSOLDER
 10
0.0669844
 20
-0.0916683
 30
0.0
 11
0.1001595
 21
-0.1195055
 31
0.0
  0
LINE
  5
120
  8
TOPSOLDER
 10
0.1001595
 20
-0.1195055
 30
0.0
 11
0.109776
 21
-0.1080451
 31
0.0
  0
LINE
  5
121
  8
TOPSOLDER
 10
0.109776
 20
-0.1080451
 30
0.0
 11
0.0766009
 21
-0.0802079
 31
0.0
  0
LINE
  5
122
  8
TOPSOLDER
 10
0.0766009
 20
-0.0802079
 30
0.0
 11
0.0669844
 21
-0.0916683
 31
0.0
  0
LINE
  5
123
  8
TOPSOLDER
 10
0.054331
 20
-0.106748
 30
0.0
 11
0.0875061
 21
-0.1345852
 31
0.0
  0
LINE
  5
124
  8
TOPSOLDER
 10
0.0875061
 20
-0.1345852
 30
0.0
 11
0.0971226
 21
-0.1231248
 31
0.0
  0
LINE
  5
125
  8
TOPSOLDER
 10
0.0971226
 20
-0.1231248
 30
0.0
 11
0.0639475
 21
-0.0952876
 31
0.0
  0
LINE
  5
126
  8
TOPSOLDER
 10
0.0639475
 20
-0.0952876
 30
0.0
 11
0.054331
 21
-0.106748
 31
0.0
  0
LINE
  5
127
  8
TOPSOLDER
 10
0.0416779
 20
-0.1218276
 30
0.0
 11
0.074853
 21
-0.1496648
 31
0.0
  0
LINE
  5
128
  8
TOPSOLDER
 10
0.074853
 20
-0.1496648
 30
0.0
 11
0.0844695
 21
-0.1382044
 31
0.0
  0
LINE
  5
129
  8
TOPSOLDER
 10
0.0844695
 20
-0.1382044
 30
0.0
 11
0.0512944
 21
-0.1103672
 31
0.0
  0
LINE
  5
12A
  8
TOPSOLDER
 10
0.0512944
 20
-0.1103672
 30
0.0
 11
0.0416779
 21
-0.1218276
 31
0.0
  0
LINE
  5
12B
  8
TOPSOLDER
 10
0.0290244
 20
-0.1369072
 30
0.0
 11
0.0621995
 21
-0.1647444
 31
0.0
  0
LINE
  5
12C
  8
TOPSOLDER
 10
0.0621995
 20
-0.1647444
 30
0.0
 11
0.071816
 21
-0.153284
 31
0.0
  0
LINE
  5
12D
  8
TOPSOLDER
 10
0.071816
 20
-0.153284
 30
0.0
 11
0.0386409
 21
-0.1254468
 31
0.0
  0
LINE
  5
12E
  8
TOPSOLDER
 10
0.0386409
 20
-0.1254468
 30
0.0
 11
0.0290244
 21
-0.1369072
 31
0.0
  0
LINE
  5
12F
  8
TOPSOLDER
 10
-0.0796376
 20
0.0765887
 30
0.0
 11
-0.1128127
 21
0.1044259
 31
0.0
  0
LINE
  5
130
  8
TOPSOLDER
 10
-0.1128127
 20
0.1044259
 30
0.0
 11
-0.1224292
 21
0.0929655
 31
0.0
  0
LINE
  5
131
  8
TOPSOLDER
 10
-0.1224292
 20
0.0929655
 30
0.0
 11
-0.0892541
 21
0.0651283
 31
0.0
  0
LINE
  5
132
  8
TOPSOLDER
 10
-0.0892541
 20
0.0651283
 30
0.0
 11
-0.0796376
 21
0.0765887
 31
0.0
  0
LINE
  5
133
  8
TOPSOLDER
 10
-0.1469843
 20
-0.0128595
 30
0.0
 11
0.0128596
 21
-0.1469844
 31
0.0
  0
LINE
  5
134
  8
TOPSOLDER
 10
0.0128596
 20
-0.1469844
 30
0.0
 11
0.1469845
 21
0.0128595
 31
0.0
  0
LINE
  5
135
  8
TOPSOLDER
 10
0.1469845
 20
0.0128595
 30
0.0
 11
-0.0128594
 21
0.1469844
 31
0.0
  0
LINE
  5
136
  8
TOPSOLDER
 10
-0.0128594
 20
0.1469844
 30
0.0
 11
-0.1469843
 21
-0.0128595
 31
0.0
  0
LINE
  5
137
  8
TOPSOLDER
 10
0.0163711
 20
-0.1519868
 30
0.0
 11
0.0495462
 21
-0.179824
 31
0.0
  0
LINE
  5
138
  8
TOPSOLDER
 10
0.0495462
 20
-0.179824
 30
0.0
 11
0.0591627
 21
-0.1683636
 31
0.0
  0
LINE
  5
139
  8
TOPSOLDER
 10
0.0591627
 20
-0.1683636
 30
0.0
 11
0.0259876
 21
-0.1405264
 31
0.0
  0
LINE
  5
13A
  8
TOPSOLDER
 10
0.0259876
 20
-0.1405264
 30
0.0
 11
0.0163711
 21
-0.1519868
 31
0.0
  0
LINE
  5
13B
  8
TOPSOLDER
 10
-0.0765887
 20
-0.0796377
 30
0.0
 11
-0.1044259
 21
-0.1128128
 31
0.0
  0
LINE
  5
13C
  8
TOPSOLDER
 10
-0.1044259
 20
-0.1128128
 30
0.0
 11
-0.0929655
 21
-0.1224293
 31
0.0
  0
LINE
  5
13D
  8
TOPSOLDER
 10
-0.0929655
 20
-0.1224293
 30
0.0
 11
-0.0651283
 21
-0.0892542
 31
0.0
  0
LINE
  5
13E
  8
TOPSOLDER
 10
-0.0651283
 20
-0.0892542
 30
0.0
 11
-0.0765887
 21
-0.0796377
 31
0.0
  0
LINE
  5
13F
  8
TOPSOLDER
 10
0.0765888
 20
0.0796375
 30
0.0
 11
0.104426
 21
0.1128126
 31
0.0
  0
LINE
  5
140
  8
TOPSOLDER
 10
0.104426
 20
0.1128126
 30
0.0
 11
0.0929656
 21
0.1224291
 31
0.0
  0
LINE
  5
141
  8
TOPSOLDER
 10
0.0929656
 20
0.1224291
 30
0.0
 11
0.0651284
 21
0.089254
 31
0.0
  0
LINE
  5
142
  8
TOPSOLDER
 10
0.0651284
 20
0.089254
 30
0.0
 11
0.0765888
 21
0.0796375
 31
0.0
  0
ENDBLK
  5
8E
  8
0
  0
BLOCK
  8
0
  2
LFCSP_8_ADM4852_B_8
 70
     0
 10
0.0
 20
0.0
 30
0.0
  3
LFCSP_8_ADM4852_B_8
  1

  0
ENDBLK
  5
146
  8
0
  0
BLOCK
  8
0
  2
LFCSP_8_ADM4852_9
 70
     0
 10
0.0
 20
0.0
 30
0.0
  3
LFCSP_8_ADM4852_9
  1

  0
LINE
  5
14B
  8
TOPSOLDER
 10
0.0905197
 20
-0.0590237
 30
0.0
 11
0.0905197
 21
-0.0748347
 31
0.0
  0
LINE
  5
14C
  8
TOPSOLDER
 10
0.0905197
 20
-0.0748347
 30
0.0
 11
0.1220787
 21
-0.0748347
 31
0.0
  0
LINE
  5
14D
  8
TOPSOLDER
 10
0.1220787
 20
-0.0748347
 30
0.0
 11
0.1220787
 21
-0.0590237
 31
0.0
  0
LINE
  5
14E
  8
TOPSOLDER
 10
0.1220787
 20
-0.0590237
 30
0.0
 11
0.0905197
 21
-0.0590237
 31
0.0
  0
LINE
  5
14F
  8
TOPSOLDER
 10
0.0905197
 20
-0.0393387
 30
0.0
 11
0.0905197
 21
-0.0551497
 31
0.0
  0
LINE
  5
150
  8
TOPSOLDER
 10
0.0905197
 20
-0.0551497
 30
0.0
 11
0.1220787
 21
-0.0551497
 31
0.0
  0
LINE
  5
151
  8
TOPSOLDER
 10
0.1220787
 20
-0.0551497
 30
0.0
 11
0.1220787
 21
-0.0393387
 31
0.0
  0
LINE
  5
152
  8
TOPSOLDER
 10
0.1220787
 20
-0.0393387
 30
0.0
 11
0.0905197
 21
-0.0393387
 31
0.0
  0
LINE
  5
153
  8
TOPSOLDER
 10
0.0905197
 20
-0.0196536
 30
0.0
 11
0.0905197
 21
-0.0354646
 31
0.0
  0
LINE
  5
154
  8
TOPSOLDER
 10
0.0905197
 20
-0.0354646
 30
0.0
 11
0.1220787
 21
-0.0354646
 31
0.0
  0
LINE
  5
155
  8
TOPSOLDER
 10
0.1220787
 20
-0.0354646
 30
0.0
 11
0.1220787
 21
-0.0196536
 31
0.0
  0
LINE
  5
156
  8
TOPSOLDER
 10
0.1220787
 20
-0.0196536
 30
0.0
 11
0.0905197
 21
-0.0196536
 31
0.0
  0
LINE
  5
157
  8
TOPSOLDER
 10
0.0905197
 20
0.0000314
 30
0.0
 11
0.0905197
 21
-0.0157796
 31
0.0
  0
LINE
  5
158
  8
TOPSOLDER
 10
0.0905197
 20
-0.0157796
 30
0.0
 11
0.1220787
 21
-0.0157796
 31
0.0
  0
LINE
  5
159
  8
TOPSOLDER
 10
0.1220787
 20
-0.0157796
 30
0.0
 11
0.1220787
 21
0.0000314
 31
0.0
  0
LINE
  5
15A
  8
TOPSOLDER
 10
0.1220787
 20
0.0000314
 30
0.0
 11
0.0905197
 21
0.0000314
 31
0.0
  0
LINE
  5
15B
  8
TOPSOLDER
 10
-0.0197165
 20
-0.0590236
 30
0.0
 11
-0.0197165
 21
-0.0748346
 31
0.0
  0
LINE
  5
15C
  8
TOPSOLDER
 10
-0.0197165
 20
-0.0748346
 30
0.0
 11
0.0118425
 21
-0.0748346
 31
0.0
  0
LINE
  5
15D
  8
TOPSOLDER
 10
0.0118425
 20
-0.0748346
 30
0.0
 11
0.0118425
 21
-0.0590236
 31
0.0
  0
LINE
  5
15E
  8
TOPSOLDER
 10
0.0118425
 20
-0.0590236
 30
0.0
 11
-0.0197165
 21
-0.0590236
 31
0.0
  0
LINE
  5
15F
  8
TOPSOLDER
 10
-0.0197165
 20
-0.0393386
 30
0.0
 11
-0.0197165
 21
-0.0551496
 31
0.0
  0
LINE
  5
160
  8
TOPSOLDER
 10
-0.0197165
 20
-0.0551496
 30
0.0
 11
0.0118425
 21
-0.0551496
 31
0.0
  0
LINE
  5
161
  8
TOPSOLDER
 10
0.0118425
 20
-0.0551496
 30
0.0
 11
0.0118425
 21
-0.0393386
 31
0.0
  0
LINE
  5
162
  8
TOPSOLDER
 10
0.0118425
 20
-0.0393386
 30
0.0
 11
-0.0197165
 21
-0.0393386
 31
0.0
  0
LINE
  5
163
  8
TOPSOLDER
 10
-0.0197165
 20
-0.0196535
 30
0.0
 11
-0.0197165
 21
-0.0354645
 31
0.0
  0
LINE
  5
164
  8
TOPSOLDER
 10
-0.0197165
 20
-0.0354645
 30
0.0
 11
0.0118425
 21
-0.0354645
 31
0.0
  0
LINE
  5
165
  8
TOPSOLDER
 10
0.0118425
 20
-0.0354645
 30
0.0
 11
0.0118425
 21
-0.0196535
 31
0.0
  0
LINE
  5
166
  8
TOPSOLDER
 10
0.0118425
 20
-0.0196535
 30
0.0
 11
-0.0197165
 21
-0.0196535
 31
0.0
  0
LINE
  5
167
  8
TOPSOLDER
 10
-0.0197165
 20
0.0000315
 30
0.0
 11
-0.0197165
 21
-0.0157795
 31
0.0
  0
LINE
  5
168
  8
TOPSOLDER
 10
-0.0197165
 20
-0.0157795
 30
0.0
 11
0.0118425
 21
-0.0157795
 31
0.0
  0
LINE
  5
169
  8
TOPSOLDER
 10
0.0118425
 20
-0.0157795
 30
0.0
 11
0.0118425
 21
0.0000315
 31
0.0
  0
LINE
  5
16A
  8
TOPSOLDER
 10
0.0118425
 20
0.0000315
 30
0.0
 11
-0.0197165
 21
0.0000315
 31
0.0
  0
LINE
  5
16B
  8
TOPSOLDER
 10
0.0846771
 20
-0.0768031
 30
0.0
 11
0.0846771
 21
0.0019999
 31
0.0
  0
LINE
  5
16C
  8
TOPSOLDER
 10
0.0846771
 20
0.0019999
 30
0.0
 11
0.0294961
 21
0.0019999
 31
0.0
  0
LINE
  5
16D
  8
TOPSOLDER
 10
0.0294961
 20
0.0019999
 30
0.0
 11
0.0294961
 21
-0.0768031
 31
0.0
  0
LINE
  5
16E
  8
TOPSOLDER
 10
0.0294961
 20
-0.0768031
 30
0.0
 11
0.0846771
 21
-0.0768031
 31
0.0
  0
LINE
  5
16F
  8
TOPSOLDER
 10
0.0413701
 20
-0.0137481
 30
0.0
 11
0.0176851
 21
-0.0137481
 31
0.0
  0
LINE
  5
170
  8
TOPSOLDER
 10
0.0176851
 20
-0.0137481
 30
0.0
 11
0.0176851
 21
-0.0768031
 31
0.0
  0
LINE
  5
171
  8
TOPSOLDER
 10
0.0176851
 20
-0.0768031
 30
0.0
 11
0.0413701
 21
-0.0768031
 31
0.0
  0
LINE
  5
172
  8
TOPSOLDER
 10
0.0413701
 20
-0.0768031
 30
0.0
 11
0.0413701
 21
-0.0137481
 31
0.0
  0
ENDBLK
  5
14A
  8
0
  0
BLOCK
  8
0
  2
DS2_10
 70
     0
 10
0.0
 20
0.0
 30
0.0
  3
DS2_10
  1

  0
CIRCLE
  5
177
  8
TOPSOLDER
 10
0.0
 20
0.0
 30
0.0
 40
0.1102362
  0
ENDBLK
  5
176
  8
0
  0
BLOCK
  8
0
  2
SOT23_11
 70
     0
 10
0.0
 20
0.0
 30
0.0
  3
SOT23_11
  1

  0
LINE
  5
17C
  8
TOPSOLDER
 10
-0.0229895
 20
0.0197312
 30
0.0
 11
-0.0229895
 21
-0.0192058
 31
0.0
  0
LINE
  5
17D
  8
TOPSOLDER
 10
-0.0229895
 20
-0.0192058
 30
0.0
 11
0.0239475
 21
-0.0192058
 31
0.0
  0
LINE
  5
17E
  8
TOPSOLDER
 10
0.0239475
 20
-0.0192058
 30
0.0
 11
0.0239475
 21
0.0197312
 31
0.0
  0
LINE
  5
17F
  8
TOPSOLDER
 10
0.0239475
 20
0.0197312
 30
0.0
 11
-0.0229895
 21
0.0197312
 31
0.0
  0
LINE
  5
180
  8
TOPSOLDER
 10
0.0690105
 20
0.0577312
 30
0.0
 11
0.0690105
 21
0.0187942
 31
0.0
  0
LINE
  5
181
  8
TOPSOLDER
 10
0.0690105
 20
0.0187942
 30
0.0
 11
0.1159475
 21
0.0187942
 31
0.0
  0
LINE
  5
182
  8
TOPSOLDER
 10
0.1159475
 20
0.0187942
 30
0.0
 11
0.1159475
 21
0.0577312
 31
0.0
  0
LINE
  5
183
  8
TOPSOLDER
 10
0.1159475
 20
0.0577312
 30
0.0
 11
0.0690105
 21
0.0577312
 31
0.0
  0
LINE
  5
184
  8
TOPSOLDER
 10
0.0690105
 20
-0.0182688
 30
0.0
 11
0.0690105
 21
-0.0572058
 31
0.0
  0
LINE
  5
185
  8
TOPSOLDER
 10
0.0690105
 20
-0.0572058
 30
0.0
 11
0.1159475
 21
-0.0572058
 31
0.0
  0
LINE
  5
186
  8
TOPSOLDER
 10
0.1159475
 20
-0.0572058
 30
0.0
 11
0.1159475
 21
-0.0182688
 31
0.0
  0
LINE
  5
187
  8
TOPSOLDER
 10
0.1159475
 20
-0.0182688
 30
0.0
 11
0.0690105
 21
-0.0182688
 31
0.0
  0
ENDBLK
  5
17B
  8
0
  0
BLOCK
  8
0
  2
SSOT_6_12
 70
     0
 10
0.0
 20
0.0
 30
0.0
  3
SSOT_6_12
  1

  0
LINE
  5
18C
  8
TOPSOLDER
 10
-0.0216536
 20
-0.0807087
 30
0.0
 11
-0.0531496
 21
-0.0807087
 31
0.0
  0
LINE
  5
18D
  8
TOPSOLDER
 10
-0.0531496
 20
-0.0807087
 30
0.0
 11
-0.0531496
 21
-0.1240157
 31
0.0
  0
LINE
  5
18E
  8
TOPSOLDER
 10
-0.0531496
 20
-0.1240157
 30
0.0
 11
-0.0216536
 21
-0.1240157
 31
0.0
  0
LINE
  5
18F
  8
TOPSOLDER
 10
-0.0216536
 20
-0.1240157
 30
0.0
 11
-0.0216536
 21
-0.0807087
 31
0.0
  0
LINE
  5
190
  8
TOPSOLDER
 10
-0.0590551
 20
-0.0807087
 30
0.0
 11
-0.0905511
 21
-0.0807087
 31
0.0
  0
LINE
  5
191
  8
TOPSOLDER
 10
-0.0905511
 20
-0.0807087
 30
0.0
 11
-0.0905511
 21
-0.1240157
 31
0.0
  0
LINE
  5
192
  8
TOPSOLDER
 10
-0.0905511
 20
-0.1240157
 30
0.0
 11
-0.0590551
 21
-0.1240157
 31
0.0
  0
LINE
  5
193
  8
TOPSOLDER
 10
-0.0590551
 20
-0.1240157
 30
0.0
 11
-0.0590551
 21
-0.0807087
 31
0.0
  0
LINE
  5
194
  8
TOPSOLDER
 10
-0.0590551
 20
0.0216535
 30
0.0
 11
-0.0905511
 21
0.0216535
 31
0.0
  0
LINE
  5
195
  8
TOPSOLDER
 10
-0.0905511
 20
0.0216535
 30
0.0
 11
-0.0905511
 21
-0.0216535
 31
0.0
  0
LINE
  5
196
  8
TOPSOLDER
 10
-0.0905511
 20
-0.0216535
 30
0.0
 11
-0.0590551
 21
-0.0216535
 31
0.0
  0
LINE
  5
197
  8
TOPSOLDER
 10
-0.0590551
 20
-0.0216535
 30
0.0
 11
-0.0590551
 21
0.0216535
 31
0.0
  0
LINE
  5
198
  8
TOPSOLDER
 10
-0.0216536
 20
0.0216535
 30
0.0
 11
-0.0531496
 21
0.0216535
 31
0.0
  0
LINE
  5
199
  8
TOPSOLDER
 10
-0.0531496
 20
0.0216535
 30
0.0
 11
-0.0531496
 21
-0.0216535
 31
0.0
  0
LINE
  5
19A
  8
TOPSOLDER
 10
-0.0531496
 20
-0.0216535
 30
0.0
 11
-0.0216536
 21
-0.0216535
 31
0.0
  0
LINE
  5
19B
  8
TOPSOLDER
 10
-0.0216536
 20
-0.0216535
 30
0.0
 11
-0.0216536
 21
0.0216535
 31
0.0
  0
LINE
  5
19C
  8
TOPSOLDER
 10
0.015748
 20
0.0216535
 30
0.0
 11
-0.015748
 21
0.0216535
 31
0.0
  0
LINE
  5
19D
  8
TOPSOLDER
 10
-0.015748
 20
0.0216535
 30
0.0
 11
-0.015748
 21
-0.0216535
 31
0.0
  0
LINE
  5
19E
  8
TOPSOLDER
 10
-0.015748
 20
-0.0216535
 30
0.0
 11
0.015748
 21
-0.0216535
 31
0.0
  0
LINE
  5
19F
  8
TOPSOLDER
 10
0.015748
 20
-0.0216535
 30
0.0
 11
0.015748
 21
0.0216535
 31
0.0
  0
LINE
  5
1A0
  8
TOPSOLDER
 10
0.015748
 20
-0.0807087
 30
0.0
 11
-0.015748
 21
-0.0807087
 31
0.0
  0
LINE
  5
1A1
  8
TOPSOLDER
 10
-0.015748
 20
-0.0807087
 30
0.0
 11
-0.015748
 21
-0.1240157
 31
0.0
  0
LINE
  5
1A2
  8
TOPSOLDER
 10
-0.015748
 20
-0.1240157
 30
0.0
 11
0.015748
 21
-0.1240157
 31
0.0
  0
LINE
  5
1A3
  8
TOPSOLDER
 10
0.015748
 20
-0.1240157
 30
0.0
 11
0.015748
 21
-0.0807087
 31
0.0
  0
ENDBLK
  5
18B
  8
0
  0
BLOCK
  8
0
  2
R0603_13
 70
     0
 10
0.0
 20
0.0
 30
0.0
  3
R0603_13
  1

  0
LINE
  5
1A8
  8
TOPSOLDER
 10
-0.0477165
 20
0.019685
 30
0.0
 11
-0.0477165
 21
-0.019685
 31
0.0
  0
LINE
  5
1A9
  8
TOPSOLDER
 10
-0.0477165
 20
-0.019685
 30
0.0
 11
-0.0122835
 21
-0.019685
 31
0.0
  0
LINE
  5
1AA
  8
TOPSOLDER
 10
-0.0122835
 20
-0.019685
 30
0.0
 11
-0.0122835
 21
0.019685
 31
0.0
  0
LINE
  5
1AB
  8
TOPSOLDER
 10
-0.0122835
 20
0.019685
 30
0.0
 11
-0.0477165
 21
0.019685
 31
0.0
  0
LINE
  5
1AC
  8
TOPSOLDER
 10
0.0122835
 20
0.019685
 30
0.0
 11
0.0122835
 21
-0.019685
 31
0.0
  0
LINE
  5
1AD
  8
TOPSOLDER
 10
0.0122835
 20
-0.019685
 30
0.0
 11
0.0477165
 21
-0.019685
 31
0.0
  0
LINE
  5
1AE
  8
TOPSOLDER
 10
0.0477165
 20
-0.019685
 30
0.0
 11
0.0477165
 21
0.019685
 31
0.0
  0
LINE
  5
1AF
  8
TOPSOLDER
 10
0.0477165
 20
0.019685
 30
0.0
 11
0.0122835
 21
0.019685
 31
0.0
  0
ENDBLK
  5
1A7
  8
0
  0
BLOCK
  8
0
  2
R0603_14
 70
     0
 10
0.0
 20
0.0
 30
0.0
  3
R0603_14
  1

  0
LINE
  5
1B4
  8
TOPSOLDER
 10
0.0477165
 20
-0.019685
 30
0.0
 11
0.0477165
 21
0.019685
 31
0.0
  0
LINE
  5
1B5
  8
TOPSOLDER
 10
0.0477165
 20
0.019685
 30
0.0
 11
0.0122835
 21
0.019685
 31
0.0
  0
LINE
  5
1B6
  8
TOPSOLDER
 10
0.0122835
 20
0.019685
 30
0.0
 11
0.0122835
 21
-0.019685
 31
0.0
  0
LINE
  5
1B7
  8
TOPSOLDER
 10
0.0122835
 20
-0.019685
 30
0.0
 11
0.0477165
 21
-0.019685
 31
0.0
  0
LINE
  5
1B8
  8
TOPSOLDER
 10
-0.0122835
 20
-0.019685
 30
0.0
 11
-0.0122835
 21
0.019685
 31
0.0
  0
LINE
  5
1B9
  8
TOPSOLDER
 10
-0.0122835
 20
0.019685
 30
0.0
 11
-0.0477165
 21
0.019685
 31
0.0
  0
LINE
  5
1BA
  8
TOPSOLDER
 10
-0.0477165
 20
0.019685
 30
0.0
 11
-0.0477165
 21
-0.019685
 31
0.0
  0
LINE
  5
1BB
  8
TOPSOLDER
 10
-0.0477165
 20
-0.019685
 30
0.0
 11
-0.0122835
 21
-0.019685
 31
0.0
  0
ENDBLK
  5
1B3
  8
0
  0
BLOCK
  8
0
  2
R0603_15
 70
     0
 10
0.0
 20
0.0
 30
0.0
  3
R0603_15
  1

  0
LINE
  5
1C0
  8
TOPSOLDER
 10
0.0477165
 20
-0.019685
 30
0.0
 11
0.0477165
 21
0.019685
 31
0.0
  0
LINE
  5
1C1
  8
TOPSOLDER
 10
0.0477165
 20
0.019685
 30
0.0
 11
0.0122835
 21
0.019685
 31
0.0
  0
LINE
  5
1C2
  8
TOPSOLDER
 10
0.0122835
 20
0.019685
 30
0.0
 11
0.0122835
 21
-0.019685
 31
0.0
  0
LINE
  5
1C3
  8
TOPSOLDER
 10
0.0122835
 20
-0.019685
 30
0.0
 11
0.0477165
 21
-0.019685
 31
0.0
  0
LINE
  5
1C4
  8
TOPSOLDER
 10
-0.0122835
 20
-0.019685
 30
0.0
 11
-0.0122835
 21
0.019685
 31
0.0
  0
LINE
  5
1C5
  8
TOPSOLDER
 10
-0.0122835
 20
0.019685
 30
0.0
 11
-0.0477165
 21
0.019685
 31
0.0
  0
LINE
  5
1C6
  8
TOPSOLDER
 10
-0.0477165
 20
0.019685
 30
0.0
 11
-0.0477165
 21
-0.019685
 31
0.0
  0
LINE
  5
1C7
  8
TOPSOLDER
 10
-0.0477165
 20
-0.019685
 30
0.0
 11
-0.0122835
 21
-0.019685
 31
0.0
  0
ENDBLK
  5
1BF
  8
0
  0
BLOCK
  8
0
  2
DS2_16
 70
     0
 10
0.0
 20
0.0
 30
0.0
  3
DS2_16
  1

  0
CIRCLE
  5
1CC
  8
TOPSOLDER
 10
0.0
 20
0.0
 30
0.0
 40
0.1102362
  0
ENDBLK
  5
1CB
  8
0
  0
BLOCK
  8
0
  2
LISTA2_5SMT2___17
 70
     0
 10
0.0
 20
0.0
 30
0.0
  3
LISTA2_5SMT2___17
  1

  0
LINE
  5
1D1
  8
TOPSOLDER
 10
-0.1397638
 20
0.1476378
 30
0.0
 11
-0.1751968
 21
0.1476378
 31
0.0
  0
LINE
  5
1D2
  8
TOPSOLDER
 10
-0.1751968
 20
0.1476378
 30
0.0
 11
-0.1751968
 21
0.0570866
 31
0.0
  0
LINE
  5
1D3
  8
TOPSOLDER
 10
-0.1751968
 20
0.0570866
 30
0.0
 11
-0.1397638
 21
0.0570866
 31
0.0
  0
LINE
  5
1D4
  8
TOPSOLDER
 10
-0.1397638
 20
0.0570866
 30
0.0
 11
-0.1397638
 21
0.1476378
 31
0.0
  0
LINE
  5
1D5
  8
TOPSOLDER
 10
-0.0610236
 20
0.1476378
 30
0.0
 11
-0.0964566
 21
0.1476378
 31
0.0
  0
LINE
  5
1D6
  8
TOPSOLDER
 10
-0.0964566
 20
0.1476378
 30
0.0
 11
-0.0964566
 21
0.0570866
 31
0.0
  0
LINE
  5
1D7
  8
TOPSOLDER
 10
-0.0964566
 20
0.0570866
 30
0.0
 11
-0.0610236
 21
0.0570866
 31
0.0
  0
LINE
  5
1D8
  8
TOPSOLDER
 10
-0.0610236
 20
0.0570866
 30
0.0
 11
-0.0610236
 21
0.1476378
 31
0.0
  0
LINE
  5
1D9
  8
TOPSOLDER
 10
-0.1397638
 20
-0.0570867
 30
0.0
 11
-0.1751968
 21
-0.0570867
 31
0.0
  0
LINE
  5
1DA
  8
TOPSOLDER
 10
-0.1751968
 20
-0.0570867
 30
0.0
 11
-0.1751968
 21
-0.1476379
 31
0.0
  0
LINE
  5
1DB
  8
TOPSOLDER
 10
-0.1751968
 20
-0.1476379
 30
0.0
 11
-0.1397638
 21
-0.1476379
 31
0.0
  0
LINE
  5
1DC
  8
TOPSOLDER
 10
-0.1397638
 20
-0.1476379
 30
0.0
 11
-0.1397638
 21
-0.0570867
 31
0.0
  0
LINE
  5
1DD
  8
TOPSOLDER
 10
-0.0610236
 20
-0.0570867
 30
0.0
 11
-0.0964566
 21
-0.0570867
 31
0.0
  0
LINE
  5
1DE
  8
TOPSOLDER
 10
-0.0964566
 20
-0.0570867
 30
0.0
 11
-0.0964566
 21
-0.1476379
 31
0.0
  0
LINE
  5
1DF
  8
TOPSOLDER
 10
-0.0964566
 20
-0.1476379
 30
0.0
 11
-0.0610236
 21
-0.1476379
 31
0.0
  0
LINE
  5
1E0
  8
TOPSOLDER
 10
-0.0610236
 20
-0.1476379
 30
0.0
 11
-0.0610236
 21
-0.0570867
 31
0.0
  0
LINE
  5
1E1
  8
TOPSOLDER
 10
0.0177165
 20
0.1476379
 30
0.0
 11
-0.0177165
 21
0.1476379
 31
0.0
  0
LINE
  5
1E2
  8
TOPSOLDER
 10
-0.0177165
 20
0.1476379
 30
0.0
 11
-0.0177165
 21
0.0570867
 31
0.0
  0
LINE
  5
1E3
  8
TOPSOLDER
 10
-0.0177165
 20
0.0570867
 30
0.0
 11
0.0177165
 21
0.0570867
 31
0.0
  0
LINE
  5
1E4
  8
TOPSOLDER
 10
0.0177165
 20
0.0570867
 30
0.0
 11
0.0177165
 21
0.1476379
 31
0.0
  0
LINE
  5
1E5
  8
TOPSOLDER
 10
0.0964567
 20
0.1476378
 30
0.0
 11
0.0610237
 21
0.1476378
 31
0.0
  0
LINE
  5
1E6
  8
TOPSOLDER
 10
0.0610237
 20
0.1476378
 30
0.0
 11
0.0610237
 21
0.0570866
 31
0.0
  0
LINE
  5
1E7
  8
TOPSOLDER
 10
0.0610237
 20
0.0570866
 30
0.0
 11
0.0964567
 21
0.0570866
 31
0.0
  0
LINE
  5
1E8
  8
TOPSOLDER
 10
0.0964567
 20
0.0570866
 30
0.0
 11
0.0964567
 21
0.1476378
 31
0.0
  0
LINE
  5
1E9
  8
TOPSOLDER
 10
0.1751968
 20
0.1476379
 30
0.0
 11
0.1397638
 21
0.1476379
 31
0.0
  0
LINE
  5
1EA
  8
TOPSOLDER
 10
0.1397638
 20
0.1476379
 30
0.0
 11
0.1397638
 21
0.0570867
 31
0.0
  0
LINE
  5
1EB
  8
TOPSOLDER
 10
0.1397638
 20
0.0570867
 30
0.0
 11
0.1751968
 21
0.0570867
 31
0.0
  0
LINE
  5
1EC
  8
TOPSOLDER
 10
0.1751968
 20
0.0570867
 30
0.0
 11
0.1751968
 21
0.1476379
 31
0.0
  0
LINE
  5
1ED
  8
TOPSOLDER
 10
0.0177165
 20
-0.0570867
 30
0.0
 11
-0.0177165
 21
-0.0570867
 31
0.0
  0
LINE
  5
1EE
  8
TOPSOLDER
 10
-0.0177165
 20
-0.0570867
 30
0.0
 11
-0.0177165
 21
-0.1476379
 31
0.0
  0
LINE
  5
1EF
  8
TOPSOLDER
 10
-0.0177165
 20
-0.1476379
 30
0.0
 11
0.0177165
 21
-0.1476379
 31
0.0
  0
LINE
  5
1F0
  8
TOPSOLDER
 10
0.0177165
 20
-0.1476379
 30
0.0
 11
0.0177165
 21
-0.0570867
 31
0.0
  0
LINE
  5
1F1
  8
TOPSOLDER
 10
0.0964567
 20
-0.0570867
 30
0.0
 11
0.0610237
 21
-0.0570867
 31
0.0
  0
LINE
  5
1F2
  8
TOPSOLDER
 10
0.0610237
 20
-0.0570867
 30
0.0
 11
0.0610237
 21
-0.1476379
 31
0.0
  0
LINE
  5
1F3
  8
TOPSOLDER
 10
0.0610237
 20
-0.1476379
 30
0.0
 11
0.0964567
 21
-0.1476379
 31
0.0
  0
LINE
  5
1F4
  8
TOPSOLDER
 10
0.0964567
 20
-0.1476379
 30
0.0
 11
0.0964567
 21
-0.0570867
 31
0.0
  0
LINE
  5
1F5
  8
TOPSOLDER
 10
0.1751968
 20
-0.0570867
 30
0.0
 11
0.1397638
 21
-0.0570867
 31
0.0
  0
LINE
  5
1F6
  8
TOPSOLDER
 10
0.1397638
 20
-0.0570867
 30
0.0
 11
0.1397638
 21
-0.1476379
 31
0.0
  0
LINE
  5
1F7
  8
TOPSOLDER
 10
0.1397638
 20
-0.1476379
 30
0.0
 11
0.1751968
 21
-0.1476379
 31
0.0
  0
LINE
  5
1F8
  8
TOPSOLDER
 10
0.1751968
 20
-0.1476379
 30
0.0
 11
0.1751968
 21
-0.0570867
 31
0.0
  0
ENDBLK
  5
1D0
  8
0
  0
BLOCK
  8
0
  2
USB______________18
 70
     0
 10
0.0
 20
0.0
 30
0.0
  3
USB______________18
  1

  0
ARC
  5
1FD
  8
TOPSOLDER
 10
-0.0629921
 20
-0.0629921
 30
0.0
 40
0.02362205
 50
180.0
 51
0.0
  0
LINE
  5
1FE
  8
TOPSOLDER
 10
-0.0393701
 20
-0.0629921
 30
0.0
 11
-0.0393701
 21
-0.0393701
 31
0.0
  0
LINE
  5
1FF
  8
TOPSOLDER
 10
-0.0866141
 20
-0.0629921
 30
0.0
 11
-0.0866141
 21
-0.0393701
 31
0.0
  0
ARC
  5
200
  8
TOPSOLDER
 10
-0.0629921
 20
-0.0393701
 30
0.0
 40
0.02362205
 50
0.0
 51
180.0
  0
ARC
  5
201
  8
TOPSOLDER
 10
-0.0314961
 20
0.0393701
 30
0.0
 40
0.02362205
 50
180.0
 51
0.0
  0
LINE
  5
202
  8
TOPSOLDER
 10
-0.0078741
 20
0.0393701
 30
0.0
 11
-0.0078741
 21
0.0629921
 31
0.0
  0
LINE
  5
203
  8
TOPSOLDER
 10
-0.0551181
 20
0.0393701
 30
0.0
 11
-0.0551181
 21
0.0629921
 31
0.0
  0
ARC
  5
204
  8
TOPSOLDER
 10
-0.0314961
 20
0.0629921
 30
0.0
 40
0.02362205
 50
0.0
 51
180.0
  0
ARC
  5
205
  8
TOPSOLDER
 10
0.0
 20
-0.0629921
 30
0.0
 40
0.02362205
 50
180.0
 51
0.0
  0
LINE
  5
206
  8
TOPSOLDER
 10
0.023622
 20
-0.0629921
 30
0.0
 11
0.023622
 21
-0.0393701
 31
0.0
  0
LINE
  5
207
  8
TOPSOLDER
 10
-0.023622
 20
-0.0629921
 30
0.0
 11
-0.023622
 21
-0.0393701
 31
0.0
  0
ARC
  5
208
  8
TOPSOLDER
 10
0.0
 20
-0.0393701
 30
0.0
 40
0.02362205
 50
0.0
 51
180.0
  0
ARC
  5
209
  8
TOPSOLDER
 10
0.0314961
 20
0.0393701
 30
0.0
 40
0.02362205
 50
180.0
 51
0.0
  0
LINE
  5
20A
  8
TOPSOLDER
 10
0.0551181
 20
0.0393701
 30
0.0
 11
0.0551181
 21
0.0629921
 31
0.0
  0
LINE
  5
20B
  8
TOPSOLDER
 10
0.0078741
 20
0.0393701
 30
0.0
 11
0.0078741
 21
0.0629921
 31
0.0
  0
ARC
  5
20C
  8
TOPSOLDER
 10
0.0314961
 20
0.0629921
 30
0.0
 40
0.02362205
 50
0.0
 51
180.0
  0
ARC
  5
20D
  8
TOPSOLDER
 10
0.0629921
 20
-0.0629921
 30
0.0
 40
0.02362205
 50
180.0
 51
0.0
  0
LINE
  5
20E
  8
TOPSOLDER
 10
0.0866141
 20
-0.0629921
 30
0.0
 11
0.0866141
 21
-0.0393701
 31
0.0
  0
LINE
  5
20F
  8
TOPSOLDER
 10
0.0393701
 20
-0.0629921
 30
0.0
 11
0.0393701
 21
-0.0393701
 31
0.0
  0
ARC
  5
210
  8
TOPSOLDER
 10
0.0629921
 20
-0.0393701
 30
0.0
 40
0.02362205
 50
0.0
 51
180.0
  0
ARC
  5
211
  8
TOPSOLDER
 10
0.1437008
 20
-0.0472441
 30
0.0
 40
0.03149605
 50
180.0
 51
0.0
  0
LINE
  5
212
  8
TOPSOLDER
 10
0.1751968
 20
-0.0472441
 30
0.0
 11
0.1751968
 21
0.0472441
 31
0.0
  0
LINE
  5
213
  8
TOPSOLDER
 10
0.1122048
 20
-0.0472441
 30
0.0
 11
0.1122048
 21
0.0472441
 31
0.0
  0
ARC
  5
214
  8
TOPSOLDER
 10
0.1437008
 20
0.0472441
 30
0.0
 40
0.03149605
 50
0.0
 51
180.0
  0
ARC
  5
215
  8
TOPSOLDER
 10
-0.1437008
 20
-0.0472441
 30
0.0
 40
0.03149605
 50
180.0
 51
0.0
  0
LINE
  5
216
  8
TOPSOLDER
 10
-0.1122048
 20
-0.0472441
 30
0.0
 11
-0.1122048
 21
0.0472441
 31
0.0
  0
LINE
  5
217
  8
TOPSOLDER
 10
-0.1751968
 20
-0.0472441
 30
0.0
 11
-0.1751968
 21
0.0472441
 31
0.0
  0
ARC
  5
218
  8
TOPSOLDER
 10
-0.1437008
 20
0.0472441
 30
0.0
 40
0.03149605
 50
0.0
 51
180.0
  0
ENDBLK
  5
1FC
  8
0
  0
BLOCK
  8
0
  2
LPV_10G_P__M__19
 70
     0
 10
0.0
 20
0.0
 30
0.0
  3
LPV_10G_P__M__19
  1

  0
CIRCLE
  5
21D
  8
TOPSOLDER
 10
0.3
 20
0.0
 30
0.0
 40
0.0364685
  0
CIRCLE
  5
21E
  8
TOPSOLDER
 10
0.0
 20
0.1
 30
0.0
 40
0.0364685
  0
LINE
  5
21F
  8
TOPSOLDER
 10
-0.0364685
 20
0.0364685
 30
0.0
 11
-0.0364685
 21
-0.0364685
 31
0.0
  0
LINE
  5
220
  8
TOPSOLDER
 10
-0.0364685
 20
-0.0364685
 30
0.0
 11
0.0364685
 21
-0.0364685
 31
0.0
  0
LINE
  5
221
  8
TOPSOLDER
 10
0.0364685
 20
-0.0364685
 30
0.0
 11
0.0364685
 21
0.0364685
 31
0.0
  0
LINE
  5
222
  8
TOPSOLDER
 10
0.0364685
 20
0.0364685
 30
0.0
 11
-0.0364685
 21
0.0364685
 31
0.0
  0
CIRCLE
  5
223
  8
TOPSOLDER
 10
0.2
 20
0.0
 30
0.0
 40
0.0364685
  0
CIRCLE
  5
224
  8
TOPSOLDER
 10
0.1
 20
0.0
 30
0.0
 40
0.0364685
  0
CIRCLE
  5
225
  8
TOPSOLDER
 10
0.1
 20
0.1
 30
0.0
 40
0.0364685
  0
CIRCLE
  5
226
  8
TOPSOLDER
 10
0.2
 20
0.1
 30
0.0
 40
0.0364685
  0
CIRCLE
  5
227
  8
TOPSOLDER
 10
0.3
 20
0.1
 30
0.0
 40
0.0364685
  0
CIRCLE
  5
228
  8
TOPSOLDER
 10
0.4
 20
0.0
 30
0.0
 40
0.0364685
  0
CIRCLE
  5
229
  8
TOPSOLDER
 10
0.4
 20
0.1
 30
0.0
 40
0.0364685
  0
ENDBLK
  5
21C
  8
0
  0
BLOCK
  8
0
  2
DF14___20P_20
 70
     0
 10
0.0
 20
0.0
 30
0.0
  3
DF14___20P_20
  1

  0
LINE
  5
22E
  8
TOPSOLDER
 10
0.5187009
 20
0.0472441
 30
0.0
 11
0.6013781
 21
0.0472441
 31
0.0
  0
LINE
  5
22F
  8
TOPSOLDER
 10
0.6013781
 20
0.0472441
 30
0.0
 11
0.6013781
 21
0.1535433
 31
0.0
  0
LINE
  5
230
  8
TOPSOLDER
 10
0.6013781
 20
0.1535433
 30
0.0
 11
0.5187009
 21
0.1535433
 31
0.0
  0
LINE
  5
231
  8
TOPSOLDER
 10
0.5187009
 20
0.1535433
 30
0.0
 11
0.5187009
 21
0.0472441
 31
0.0
  0
LINE
  5
232
  8
TOPSOLDER
 10
-0.6013779
 20
0.0472441
 30
0.0
 11
-0.5187007
 21
0.0472441
 31
0.0
  0
LINE
  5
233
  8
TOPSOLDER
 10
-0.5187007
 20
0.0472441
 30
0.0
 11
-0.5187007
 21
0.1535433
 31
0.0
  0
LINE
  5
234
  8
TOPSOLDER
 10
-0.5187007
 20
0.1535433
 30
0.0
 11
-0.6013779
 21
0.1535433
 31
0.0
  0
LINE
  5
235
  8
TOPSOLDER
 10
-0.6013779
 20
0.1535433
 30
0.0
 11
-0.6013779
 21
0.0472441
 31
0.0
  0
LINE
  5
236
  8
TOPSOLDER
 10
0.4832678
 20
-0.0629922
 30
0.0
 11
0.4517718
 21
-0.0629922
 31
0.0
  0
LINE
  5
237
  8
TOPSOLDER
 10
0.4517718
 20
-0.0629922
 30
0.0
 11
0.4517718
 21
-0.1377952
 31
0.0
  0
LINE
  5
238
  8
TOPSOLDER
 10
0.4517718
 20
-0.1377952
 30
0.0
 11
0.4832678
 21
-0.1377952
 31
0.0
  0
LINE
  5
239
  8
TOPSOLDER
 10
0.4832678
 20
-0.1377952
 30
0.0
 11
0.4832678
 21
-0.0629922
 31
0.0
  0
LINE
  5
23A
  8
TOPSOLDER
 10
0.4340552
 20
-0.0629922
 30
0.0
 11
0.4025592
 21
-0.0629922
 31
0.0
  0
LINE
  5
23B
  8
TOPSOLDER
 10
0.4025592
 20
-0.0629922
 30
0.0
 11
0.4025592
 21
-0.1377952
 31
0.0
  0
LINE
  5
23C
  8
TOPSOLDER
 10
0.4025592
 20
-0.1377952
 30
0.0
 11
0.4340552
 21
-0.1377952
 31
0.0
  0
LINE
  5
23D
  8
TOPSOLDER
 10
0.4340552
 20
-0.1377952
 30
0.0
 11
0.4340552
 21
-0.0629922
 31
0.0
  0
LINE
  5
23E
  8
TOPSOLDER
 10
0.3848426
 20
-0.0629922
 30
0.0
 11
0.3533466
 21
-0.0629922
 31
0.0
  0
LINE
  5
23F
  8
TOPSOLDER
 10
0.3533466
 20
-0.0629922
 30
0.0
 11
0.3533466
 21
-0.1377952
 31
0.0
  0
LINE
  5
240
  8
TOPSOLDER
 10
0.3533466
 20
-0.1377952
 30
0.0
 11
0.3848426
 21
-0.1377952
 31
0.0
  0
LINE
  5
241
  8
TOPSOLDER
 10
0.3848426
 20
-0.1377952
 30
0.0
 11
0.3848426
 21
-0.0629922
 31
0.0
  0
LINE
  5
242
  8
TOPSOLDER
 10
0.33563
 20
-0.0629922
 30
0.0
 11
0.304134
 21
-0.0629922
 31
0.0
  0
LINE
  5
243
  8
TOPSOLDER
 10
0.304134
 20
-0.0629922
 30
0.0
 11
0.304134
 21
-0.1377952
 31
0.0
  0
LINE
  5
244
  8
TOPSOLDER
 10
0.304134
 20
-0.1377952
 30
0.0
 11
0.33563
 21
-0.1377952
 31
0.0
  0
LINE
  5
245
  8
TOPSOLDER
 10
0.33563
 20
-0.1377952
 30
0.0
 11
0.33563
 21
-0.0629922
 31
0.0
  0
LINE
  5
246
  8
TOPSOLDER
 10
0.2864174
 20
-0.0629922
 30
0.0
 11
0.2549214
 21
-0.0629922
 31
0.0
  0
LINE
  5
247
  8
TOPSOLDER
 10
0.2549214
 20
-0.0629922
 30
0.0
 11
0.2549214
 21
-0.1377952
 31
0.0
  0
LINE
  5
248
  8
TOPSOLDER
 10
0.2549214
 20
-0.1377952
 30
0.0
 11
0.2864174
 21
-0.1377952
 31
0.0
  0
LINE
  5
249
  8
TOPSOLDER
 10
0.2864174
 20
-0.1377952
 30
0.0
 11
0.2864174
 21
-0.0629922
 31
0.0
  0
LINE
  5
24A
  8
TOPSOLDER
 10
0.2372048
 20
-0.0629922
 30
0.0
 11
0.2057088
 21
-0.0629922
 31
0.0
  0
LINE
  5
24B
  8
TOPSOLDER
 10
0.2057088
 20
-0.0629922
 30
0.0
 11
0.2057088
 21
-0.1377952
 31
0.0
  0
LINE
  5
24C
  8
TOPSOLDER
 10
0.2057088
 20
-0.1377952
 30
0.0
 11
0.2372048
 21
-0.1377952
 31
0.0
  0
LINE
  5
24D
  8
TOPSOLDER
 10
0.2372048
 20
-0.1377952
 30
0.0
 11
0.2372048
 21
-0.0629922
 31
0.0
  0
LINE
  5
24E
  8
TOPSOLDER
 10
0.1879922
 20
-0.0629922
 30
0.0
 11
0.1564962
 21
-0.0629922
 31
0.0
  0
LINE
  5
24F
  8
TOPSOLDER
 10
0.1564962
 20
-0.0629922
 30
0.0
 11
0.1564962
 21
-0.1377952
 31
0.0
  0
LINE
  5
250
  8
TOPSOLDER
 10
0.1564962
 20
-0.1377952
 30
0.0
 11
0.1879922
 21
-0.1377952
 31
0.0
  0
LINE
  5
251
  8
TOPSOLDER
 10
0.1879922
 20
-0.1377952
 30
0.0
 11
0.1879922
 21
-0.0629922
 31
0.0
  0
LINE
  5
252
  8
TOPSOLDER
 10
0.1387796
 20
-0.0629922
 30
0.0
 11
0.1072836
 21
-0.0629922
 31
0.0
  0
LINE
  5
253
  8
TOPSOLDER
 10
0.1072836
 20
-0.0629922
 30
0.0
 11
0.1072836
 21
-0.1377952
 31
0.0
  0
LINE
  5
254
  8
TOPSOLDER
 10
0.1072836
 20
-0.1377952
 30
0.0
 11
0.1387796
 21
-0.1377952
 31
0.0
  0
LINE
  5
255
  8
TOPSOLDER
 10
0.1387796
 20
-0.1377952
 30
0.0
 11
0.1387796
 21
-0.0629922
 31
0.0
  0
LINE
  5
256
  8
TOPSOLDER
 10
0.089567
 20
-0.0629922
 30
0.0
 11
0.058071
 21
-0.0629922
 31
0.0
  0
LINE
  5
257
  8
TOPSOLDER
 10
0.058071
 20
-0.0629922
 30
0.0
 11
0.058071
 21
-0.1377952
 31
0.0
  0
LINE
  5
258
  8
TOPSOLDER
 10
0.058071
 20
-0.1377952
 30
0.0
 11
0.089567
 21
-0.1377952
 31
0.0
  0
LINE
  5
259
  8
TOPSOLDER
 10
0.089567
 20
-0.1377952
 30
0.0
 11
0.089567
 21
-0.0629922
 31
0.0
  0
LINE
  5
25A
  8
TOPSOLDER
 10
0.0403544
 20
-0.0629922
 30
0.0
 11
0.0088584
 21
-0.0629922
 31
0.0
  0
LINE
  5
25B
  8
TOPSOLDER
 10
0.0088584
 20
-0.0629922
 30
0.0
 11
0.0088584
 21
-0.1377952
 31
0.0
  0
LINE
  5
25C
  8
TOPSOLDER
 10
0.0088584
 20
-0.1377952
 30
0.0
 11
0.0403544
 21
-0.1377952
 31
0.0
  0
LINE
  5
25D
  8
TOPSOLDER
 10
0.0403544
 20
-0.1377952
 30
0.0
 11
0.0403544
 21
-0.0629922
 31
0.0
  0
LINE
  5
25E
  8
TOPSOLDER
 10
-0.402559
 20
-0.0629922
 30
0.0
 11
-0.434055
 21
-0.0629922
 31
0.0
  0
LINE
  5
25F
  8
TOPSOLDER
 10
-0.434055
 20
-0.0629922
 30
0.0
 11
-0.434055
 21
-0.1377952
 31
0.0
  0
LINE
  5
260
  8
TOPSOLDER
 10
-0.434055
 20
-0.1377952
 30
0.0
 11
-0.402559
 21
-0.1377952
 31
0.0
  0
LINE
  5
261
  8
TOPSOLDER
 10
-0.402559
 20
-0.1377952
 30
0.0
 11
-0.402559
 21
-0.0629922
 31
0.0
  0
LINE
  5
262
  8
TOPSOLDER
 10
-0.3533464
 20
-0.0629922
 30
0.0
 11
-0.3848424
 21
-0.0629922
 31
0.0
  0
LINE
  5
263
  8
TOPSOLDER
 10
-0.3848424
 20
-0.0629922
 30
0.0
 11
-0.3848424
 21
-0.1377952
 31
0.0
  0
LINE
  5
264
  8
TOPSOLDER
 10
-0.3848424
 20
-0.1377952
 30
0.0
 11
-0.3533464
 21
-0.1377952
 31
0.0
  0
LINE
  5
265
  8
TOPSOLDER
 10
-0.3533464
 20
-0.1377952
 30
0.0
 11
-0.3533464
 21
-0.0629922
 31
0.0
  0
LINE
  5
266
  8
TOPSOLDER
 10
-0.3041338
 20
-0.0629922
 30
0.0
 11
-0.3356298
 21
-0.0629922
 31
0.0
  0
LINE
  5
267
  8
TOPSOLDER
 10
-0.3356298
 20
-0.0629922
 30
0.0
 11
-0.3356298
 21
-0.1377952
 31
0.0
  0
LINE
  5
268
  8
TOPSOLDER
 10
-0.3356298
 20
-0.1377952
 30
0.0
 11
-0.3041338
 21
-0.1377952
 31
0.0
  0
LINE
  5
269
  8
TOPSOLDER
 10
-0.3041338
 20
-0.1377952
 30
0.0
 11
-0.3041338
 21
-0.0629922
 31
0.0
  0
LINE
  5
26A
  8
TOPSOLDER
 10
-0.2549212
 20
-0.0629922
 30
0.0
 11
-0.2864172
 21
-0.0629922
 31
0.0
  0
LINE
  5
26B
  8
TOPSOLDER
 10
-0.2864172
 20
-0.0629922
 30
0.0
 11
-0.2864172
 21
-0.1377952
 31
0.0
  0
LINE
  5
26C
  8
TOPSOLDER
 10
-0.2864172
 20
-0.1377952
 30
0.0
 11
-0.2549212
 21
-0.1377952
 31
0.0
  0
LINE
  5
26D
  8
TOPSOLDER
 10
-0.2549212
 20
-0.1377952
 30
0.0
 11
-0.2549212
 21
-0.0629922
 31
0.0
  0
LINE
  5
26E
  8
TOPSOLDER
 10
-0.2057086
 20
-0.0629922
 30
0.0
 11
-0.2372046
 21
-0.0629922
 31
0.0
  0
LINE
  5
26F
  8
TOPSOLDER
 10
-0.2372046
 20
-0.0629922
 30
0.0
 11
-0.2372046
 21
-0.1377952
 31
0.0
  0
LINE
  5
270
  8
TOPSOLDER
 10
-0.2372046
 20
-0.1377952
 30
0.0
 11
-0.2057086
 21
-0.1377952
 31
0.0
  0
LINE
  5
271
  8
TOPSOLDER
 10
-0.2057086
 20
-0.1377952
 30
0.0
 11
-0.2057086
 21
-0.0629922
 31
0.0
  0
LINE
  5
272
  8
TOPSOLDER
 10
-0.156496
 20
-0.0629922
 30
0.0
 11
-0.187992
 21
-0.0629922
 31
0.0
  0
LINE
  5
273
  8
TOPSOLDER
 10
-0.187992
 20
-0.0629922
 30
0.0
 11
-0.187992
 21
-0.1377952
 31
0.0
  0
LINE
  5
274
  8
TOPSOLDER
 10
-0.187992
 20
-0.1377952
 30
0.0
 11
-0.156496
 21
-0.1377952
 31
0.0
  0
LINE
  5
275
  8
TOPSOLDER
 10
-0.156496
 20
-0.1377952
 30
0.0
 11
-0.156496
 21
-0.0629922
 31
0.0
  0
LINE
  5
276
  8
TOPSOLDER
 10
-0.1072834
 20
-0.0629922
 30
0.0
 11
-0.1387794
 21
-0.0629922
 31
0.0
  0
LINE
  5
277
  8
TOPSOLDER
 10
-0.1387794
 20
-0.0629922
 30
0.0
 11
-0.1387794
 21
-0.1377952
 31
0.0
  0
LINE
  5
278
  8
TOPSOLDER
 10
-0.1387794
 20
-0.1377952
 30
0.0
 11
-0.1072834
 21
-0.1377952
 31
0.0
  0
LINE
  5
279
  8
TOPSOLDER
 10
-0.1072834
 20
-0.1377952
 30
0.0
 11
-0.1072834
 21
-0.0629922
 31
0.0
  0
LINE
  5
27A
  8
TOPSOLDER
 10
-0.0580708
 20
-0.0629922
 30
0.0
 11
-0.0895668
 21
-0.0629922
 31
0.0
  0
LINE
  5
27B
  8
TOPSOLDER
 10
-0.0895668
 20
-0.0629922
 30
0.0
 11
-0.0895668
 21
-0.1377952
 31
0.0
  0
LINE
  5
27C
  8
TOPSOLDER
 10
-0.0895668
 20
-0.1377952
 30
0.0
 11
-0.0580708
 21
-0.1377952
 31
0.0
  0
LINE
  5
27D
  8
TOPSOLDER
 10
-0.0580708
 20
-0.1377952
 30
0.0
 11
-0.0580708
 21
-0.0629922
 31
0.0
  0
LINE
  5
27E
  8
TOPSOLDER
 10
-0.4517716
 20
-0.0629922
 30
0.0
 11
-0.4832676
 21
-0.0629922
 31
0.0
  0
LINE
  5
27F
  8
TOPSOLDER
 10
-0.4832676
 20
-0.0629922
 30
0.0
 11
-0.4832676
 21
-0.1377952
 31
0.0
  0
LINE
  5
280
  8
TOPSOLDER
 10
-0.4832676
 20
-0.1377952
 30
0.0
 11
-0.4517716
 21
-0.1377952
 31
0.0
  0
LINE
  5
281
  8
TOPSOLDER
 10
-0.4517716
 20
-0.1377952
 30
0.0
 11
-0.4517716
 21
-0.0629922
 31
0.0
  0
LINE
  5
282
  8
TOPSOLDER
 10
-0.0088582
 20
-0.0629922
 30
0.0
 11
-0.0403542
 21
-0.0629922
 31
0.0
  0
LINE
  5
283
  8
TOPSOLDER
 10
-0.0403542
 20
-0.0629922
 30
0.0
 11
-0.0403542
 21
-0.1377952
 31
0.0
  0
LINE
  5
284
  8
TOPSOLDER
 10
-0.0403542
 20
-0.1377952
 30
0.0
 11
-0.0088582
 21
-0.1377952
 31
0.0
  0
LINE
  5
285
  8
TOPSOLDER
 10
-0.0088582
 20
-0.1377952
 30
0.0
 11
-0.0088582
 21
-0.0629922
 31
0.0
  0
CIRCLE
  5
286
  8
TOPSOLDER
 10
-0.5620078
 20
-0.0570866
 30
0.0
 40
0.0019685
  0
CIRCLE
  5
287
  8
TOPSOLDER
 10
0.5620079
 20
-0.0570866
 30
0.0
 40
0.0019685
  0
ENDBLK
  5
22D
  8
0
  0
BLOCK
  8
0
  2
HC49_21
 70
     0
 10
0.0
 20
0.0
 30
0.0
  3
HC49_21
  1

  0
CIRCLE
  5
28C
  8
TOPSOLDER
 10
0.0
 20
0.0
 30
0.0
 40
0.0413386
  0
CIRCLE
  5
28D
  8
TOPSOLDER
 10
0.195
 20
0.0
 30
0.0
 40
0.0413386
  0
ENDBLK
  5
28B
  8
0
  0
BLOCK
  8
0
  2
SSOT_6_B_22
 70
     0
 10
0.0
 20
0.0
 30
0.0
  3
SSOT_6_B_22
  1

  0
ENDBLK
  5
291
  8
0
  0
BLOCK
  8
0
  2
SOT23_B_23
 70
     0
 10
0.0
 20
0.0
 30
0.0
  3
SOT23_B_23
  1

  0
ENDBLK
  5
295
  8
0
  0
BLOCK
  8
0
  2
SOT23_24
 70
     0
 10
0.0
 20
0.0
 30
0.0
  3
SOT23_24
  1

  0
LINE
  5
29A
  8
TOPSOLDER
 10
-0.0229895
 20
0.0197312
 30
0.0
 11
-0.0229895
 21
-0.0192058
 31
0.0
  0
LINE
  5
29B
  8
TOPSOLDER
 10
-0.0229895
 20
-0.0192058
 30
0.0
 11
0.0239475
 21
-0.0192058
 31
0.0
  0
LINE
  5
29C
  8
TOPSOLDER
 10
0.0239475
 20
-0.0192058
 30
0.0
 11
0.0239475
 21
0.0197312
 31
0.0
  0
LINE
  5
29D
  8
TOPSOLDER
 10
0.0239475
 20
0.0197312
 30
0.0
 11
-0.0229895
 21
0.0197312
 31
0.0
  0
LINE
  5
29E
  8
TOPSOLDER
 10
0.0690105
 20
0.0577312
 30
0.0
 11
0.0690105
 21
0.0187942
 31
0.0
  0
LINE
  5
29F
  8
TOPSOLDER
 10
0.0690105
 20
0.0187942
 30
0.0
 11
0.1159475
 21
0.0187942
 31
0.0
  0
LINE
  5
2A0
  8
TOPSOLDER
 10
0.1159475
 20
0.0187942
 30
0.0
 11
0.1159475
 21
0.0577312
 31
0.0
  0
LINE
  5
2A1
  8
TOPSOLDER
 10
0.1159475
 20
0.0577312
 30
0.0
 11
0.0690105
 21
0.0577312
 31
0.0
  0
LINE
  5
2A2
  8
TOPSOLDER
 10
0.0690105
 20
-0.0182688
 30
0.0
 11
0.0690105
 21
-0.0572058
 31
0.0
  0
LINE
  5
2A3
  8
TOPSOLDER
 10
0.0690105
 20
-0.0572058
 30
0.0
 11
0.1159475
 21
-0.0572058
 31
0.0
  0
LINE
  5
2A4
  8
TOPSOLDER
 10
0.1159475
 20
-0.0572058
 30
0.0
 11
0.1159475
 21
-0.0182688
 31
0.0
  0
LINE
  5
2A5
  8
TOPSOLDER
 10
0.1159475
 20
-0.0182688
 30
0.0
 11
0.0690105
 21
-0.0182688
 31
0.0
  0
ENDBLK
  5
299
  8
0
  0
BLOCK
  8
0
  2
SOT23_25
 70
     0
 10
0.0
 20
0.0
 30
0.0
  3
SOT23_25
  1

  0
LINE
  5
2AA
  8
TOPSOLDER
 10
-0.0229895
 20
0.0197312
 30
0.0
 11
-0.0229895
 21
-0.0192058
 31
0.0
  0
LINE
  5
2AB
  8
TOPSOLDER
 10
-0.0229895
 20
-0.0192058
 30
0.0
 11
0.0239475
 21
-0.0192058
 31
0.0
  0
LINE
  5
2AC
  8
TOPSOLDER
 10
0.0239475
 20
-0.0192058
 30
0.0
 11
0.0239475
 21
0.0197312
 31
0.0
  0
LINE
  5
2AD
  8
TOPSOLDER
 10
0.0239475
 20
0.0197312
 30
0.0
 11
-0.0229895
 21
0.0197312
 31
0.0
  0
LINE
  5
2AE
  8
TOPSOLDER
 10
0.0690105
 20
0.0577312
 30
0.0
 11
0.0690105
 21
0.0187942
 31
0.0
  0
LINE
  5
2AF
  8
TOPSOLDER
 10
0.0690105
 20
0.0187942
 30
0.0
 11
0.1159475
 21
0.0187942
 31
0.0
  0
LINE
  5
2B0
  8
TOPSOLDER
 10
0.1159475
 20
0.0187942
 30
0.0
 11
0.1159475
 21
0.0577312
 31
0.0
  0
LINE
  5
2B1
  8
TOPSOLDER
 10
0.1159475
 20
0.0577312
 30
0.0
 11
0.0690105
 21
0.0577312
 31
0.0
  0
LINE
  5
2B2
  8
TOPSOLDER
 10
0.0690105
 20
-0.0182688
 30
0.0
 11
0.0690105
 21
-0.0572058
 31
0.0
  0
LINE
  5
2B3
  8
TOPSOLDER
 10
0.0690105
 20
-0.0572058
 30
0.0
 11
0.1159475
 21
-0.0572058
 31
0.0
  0
LINE
  5
2B4
  8
TOPSOLDER
 10
0.1159475
 20
-0.0572058
 30
0.0
 11
0.1159475
 21
-0.0182688
 31
0.0
  0
LINE
  5
2B5
  8
TOPSOLDER
 10
0.1159475
 20
-0.0182688
 30
0.0
 11
0.0690105
 21
-0.0182688
 31
0.0
  0
ENDBLK
  5
2A9
  8
0
  0
BLOCK
  8
0
  2
SSOT_6_26
 70
     0
 10
0.0
 20
0.0
 30
0.0
  3
SSOT_6_26
  1

  0
LINE
  5
2BA
  8
TOPSOLDER
 10
0.0216536
 20
0.0807087
 30
0.0
 11
0.0531496
 21
0.0807087
 31
0.0
  0
LINE
  5
2BB
  8
TOPSOLDER
 10
0.0531496
 20
0.0807087
 30
0.0
 11
0.0531496
 21
0.1240157
 31
0.0
  0
LINE
  5
2BC
  8
TOPSOLDER
 10
0.0531496
 20
0.1240157
 30
0.0
 11
0.0216536
 21
0.1240157
 31
0.0
  0
LINE
  5
2BD
  8
TOPSOLDER
 10
0.0216536
 20
0.1240157
 30
0.0
 11
0.0216536
 21
0.0807087
 31
0.0
  0
LINE
  5
2BE
  8
TOPSOLDER
 10
0.0590551
 20
0.0807087
 30
0.0
 11
0.0905511
 21
0.0807087
 31
0.0
  0
LINE
  5
2BF
  8
TOPSOLDER
 10
0.0905511
 20
0.0807087
 30
0.0
 11
0.0905511
 21
0.1240157
 31
0.0
  0
LINE
  5
2C0
  8
TOPSOLDER
 10
0.0905511
 20
0.1240157
 30
0.0
 11
0.0590551
 21
0.1240157
 31
0.0
  0
LINE
  5
2C1
  8
TOPSOLDER
 10
0.0590551
 20
0.1240157
 30
0.0
 11
0.0590551
 21
0.0807087
 31
0.0
  0
LINE
  5
2C2
  8
TOPSOLDER
 10
0.0590551
 20
-0.0216535
 30
0.0
 11
0.0905511
 21
-0.0216535
 31
0.0
  0
LINE
  5
2C3
  8
TOPSOLDER
 10
0.0905511
 20
-0.0216535
 30
0.0
 11
0.0905511
 21
0.0216535
 31
0.0
  0
LINE
  5
2C4
  8
TOPSOLDER
 10
0.0905511
 20
0.0216535
 30
0.0
 11
0.0590551
 21
0.0216535
 31
0.0
  0
LINE
  5
2C5
  8
TOPSOLDER
 10
0.0590551
 20
0.0216535
 30
0.0
 11
0.0590551
 21
-0.0216535
 31
0.0
  0
LINE
  5
2C6
  8
TOPSOLDER
 10
0.0216536
 20
-0.0216535
 30
0.0
 11
0.0531496
 21
-0.0216535
 31
0.0
  0
LINE
  5
2C7
  8
TOPSOLDER
 10
0.0531496
 20
-0.0216535
 30
0.0
 11
0.0531496
 21
0.0216535
 31
0.0
  0
LINE
  5
2C8
  8
TOPSOLDER
 10
0.0531496
 20
0.0216535
 30
0.0
 11
0.0216536
 21
0.0216535
 31
0.0
  0
LINE
  5
2C9
  8
TOPSOLDER
 10
0.0216536
 20
0.0216535
 30
0.0
 11
0.0216536
 21
-0.0216535
 31
0.0
  0
LINE
  5
2CA
  8
TOPSOLDER
 10
-0.015748
 20
-0.0216535
 30
0.0
 11
0.015748
 21
-0.0216535
 31
0.0
  0
LINE
  5
2CB
  8
TOPSOLDER
 10
0.015748
 20
-0.0216535
 30
0.0
 11
0.015748
 21
0.0216535
 31
0.0
  0
LINE
  5
2CC
  8
TOPSOLDER
 10
0.015748
 20
0.0216535
 30
0.0
 11
-0.015748
 21
0.0216535
 31
0.0
  0
LINE
  5
2CD
  8
TOPSOLDER
 10
-0.015748
 20
0.0216535
 30
0.0
 11
-0.015748
 21
-0.0216535
 31
0.0
  0
LINE
  5
2CE
  8
TOPSOLDER
 10
-0.015748
 20
0.0807087
 30
0.0
 11
0.015748
 21
0.0807087
 31
0.0
  0
LINE
  5
2CF
  8
TOPSOLDER
 10
0.015748
 20
0.0807087
 30
0.0
 11
0.015748
 21
0.1240157
 31
0.0
  0
LINE
  5
2D0
  8
TOPSOLDER
 10
0.015748
 20
0.1240157
 30
0.0
 11
-0.015748
 21
0.1240157
 31
0.0
  0
LINE
  5
2D1
  8
TOPSOLDER
 10
-0.015748
 20
0.1240157
 30
0.0
 11
-0.015748
 21
0.0807087
 31
0.0
  0
ENDBLK
  5
2B9
  8
0
  0
BLOCK
  8
0
  2
R0603_27
 70
     0
 10
0.0
 20
0.0
 30
0.0
  3
R0603_27
  1

  0
LINE
  5
2D6
  8
TOPSOLDER
 10
-0.0477165
 20
0.019685
 30
0.0
 11
-0.0477165
 21
-0.019685
 31
0.0
  0
LINE
  5
2D7
  8
TOPSOLDER
 10
-0.0477165
 20
-0.019685
 30
0.0
 11
-0.0122835
 21
-0.019685
 31
0.0
  0
LINE
  5
2D8
  8
TOPSOLDER
 10
-0.0122835
 20
-0.019685
 30
0.0
 11
-0.0122835
 21
0.019685
 31
0.0
  0
LINE
  5
2D9
  8
TOPSOLDER
 10
-0.0122835
 20
0.019685
 30
0.0
 11
-0.0477165
 21
0.019685
 31
0.0
  0
LINE
  5
2DA
  8
TOPSOLDER
 10
0.0122835
 20
0.019685
 30
0.0
 11
0.0122835
 21
-0.019685
 31
0.0
  0
LINE
  5
2DB
  8
TOPSOLDER
 10
0.0122835
 20
-0.019685
 30
0.0
 11
0.0477165
 21
-0.019685
 31
0.0
  0
LINE
  5
2DC
  8
TOPSOLDER
 10
0.0477165
 20
-0.019685
 30
0.0
 11
0.0477165
 21
0.019685
 31
0.0
  0
LINE
  5
2DD
  8
TOPSOLDER
 10
0.0477165
 20
0.019685
 30
0.0
 11
0.0122835
 21
0.019685
 31
0.0
  0
ENDBLK
  5
2D5
  8
0
  0
BLOCK
  8
0
  2
R0603_28
 70
     0
 10
0.0
 20
0.0
 30
0.0
  3
R0603_28
  1

  0
LINE
  5
2E2
  8
TOPSOLDER
 10
-0.0477165
 20
0.019685
 30
0.0
 11
-0.0477165
 21
-0.019685
 31
0.0
  0
LINE
  5
2E3
  8
TOPSOLDER
 10
-0.0477165
 20
-0.019685
 30
0.0
 11
-0.0122835
 21
-0.019685
 31
0.0
  0
LINE
  5
2E4
  8
TOPSOLDER
 10
-0.0122835
 20
-0.019685
 30
0.0
 11
-0.0122835
 21
0.019685
 31
0.0
  0
LINE
  5
2E5
  8
TOPSOLDER
 10
-0.0122835
 20
0.019685
 30
0.0
 11
-0.0477165
 21
0.019685
 31
0.0
  0
LINE
  5
2E6
  8
TOPSOLDER
 10
0.0122835
 20
0.019685
 30
0.0
 11
0.0122835
 21
-0.019685
 31
0.0
  0
LINE
  5
2E7
  8
TOPSOLDER
 10
0.0122835
 20
-0.019685
 30
0.0
 11
0.0477165
 21
-0.019685
 31
0.0
  0
LINE
  5
2E8
  8
TOPSOLDER
 10
0.0477165
 20
-0.019685
 30
0.0
 11
0.0477165
 21
0.019685
 31
0.0
  0
LINE
  5
2E9
  8
TOPSOLDER
 10
0.0477165
 20
0.019685
 30
0.0
 11
0.0122835
 21
0.019685
 31
0.0
  0
ENDBLK
  5
2E1
  8
0
  0
BLOCK
  8
0
  2
R0603_29
 70
     0
 10
0.0
 20
0.0
 30
0.0
  3
R0603_29
  1

  0
LINE
  5
2EE
  8
TOPSOLDER
 10
0.0477165
 20
-0.019685
 30
0.0
 11
0.0477165
 21
0.019685
 31
0.0
  0
LINE
  5
2EF
  8
TOPSOLDER
 10
0.0477165
 20
0.019685
 30
0.0
 11
0.0122835
 21
0.019685
 31
0.0
  0
LINE
  5
2F0
  8
TOPSOLDER
 10
0.0122835
 20
0.019685
 30
0.0
 11
0.0122835
 21
-0.019685
 31
0.0
  0
LINE
  5
2F1
  8
TOPSOLDER
 10
0.0122835
 20
-0.019685
 30
0.0
 11
0.0477165
 21
-0.019685
 31
0.0
  0
LINE
  5
2F2
  8
TOPSOLDER
 10
-0.0122835
 20
-0.019685
 30
0.0
 11
-0.0122835
 21
0.019685
 31
0.0
  0
LINE
  5
2F3
  8
TOPSOLDER
 10
-0.0122835
 20
0.019685
 30
0.0
 11
-0.0477165
 21
0.019685
 31
0.0
  0
LINE
  5
2F4
  8
TOPSOLDER
 10
-0.0477165
 20
0.019685
 30
0.0
 11
-0.0477165
 21
-0.019685
 31
0.0
  0
LINE
  5
2F5
  8
TOPSOLDER
 10
-0.0477165
 20
-0.019685
 30
0.0
 11
-0.0122835
 21
-0.019685
 31
0.0
  0
ENDBLK
  5
2ED
  8
0
  0
BLOCK
  8
0
  2
R0603_30
 70
     0
 10
0.0
 20
0.0
 30
0.0
  3
R0603_30
  1

  0
LINE
  5
2FA
  8
TOPSOLDER
 10
0.0477165
 20
-0.019685
 30
0.0
 11
0.0477165
 21
0.019685
 31
0.0
  0
LINE
  5
2FB
  8
TOPSOLDER
 10
0.0477165
 20
0.019685
 30
0.0
 11
0.0122835
 21
0.019685
 31
0.0
  0
LINE
  5
2FC
  8
TOPSOLDER
 10
0.0122835
 20
0.019685
 30
0.0
 11
0.0122835
 21
-0.019685
 31
0.0
  0
LINE
  5
2FD
  8
TOPSOLDER
 10
0.0122835
 20
-0.019685
 30
0.0
 11
0.0477165
 21
-0.019685
 31
0.0
  0
LINE
  5
2FE
  8
TOPSOLDER
 10
-0.0122835
 20
-0.019685
 30
0.0
 11
-0.0122835
 21
0.019685
 31
0.0
  0
LINE
  5
2FF
  8
TOPSOLDER
 10
-0.0122835
 20
0.019685
 30
0.0
 11
-0.0477165
 21
0.019685
 31
0.0
  0
LINE
  5
300
  8
TOPSOLDER
 10
-0.0477165
 20
0.019685
 30
0.0
 11
-0.0477165
 21
-0.019685
 31
0.0
  0
LINE
  5
301
  8
TOPSOLDER
 10
-0.0477165
 20
-0.019685
 30
0.0
 11
-0.0122835
 21
-0.019685
 31
0.0
  0
ENDBLK
  5
2F9
  8
0
  0
BLOCK
  8
0
  2
R0603_31
 70
     0
 10
0.0
 20
0.0
 30
0.0
  3
R0603_31
  1

  0
LINE
  5
306
  8
TOPSOLDER
 10
0.0477165
 20
-0.019685
 30
0.0
 11
0.0477165
 21
0.019685
 31
0.0
  0
LINE
  5
307
  8
TOPSOLDER
 10
0.0477165
 20
0.019685
 30
0.0
 11
0.0122835
 21
0.019685
 31
0.0
  0
LINE
  5
308
  8
TOPSOLDER
 10
0.0122835
 20
0.019685
 30
0.0
 11
0.0122835
 21
-0.019685
 31
0.0
  0
LINE
  5
309
  8
TOPSOLDER
 10
0.0122835
 20
-0.019685
 30
0.0
 11
0.0477165
 21
-0.019685
 31
0.0
  0
LINE
  5
30A
  8
TOPSOLDER
 10
-0.0122835
 20
-0.019685
 30
0.0
 11
-0.0122835
 21
0.019685
 31
0.0
  0
LINE
  5
30B
  8
TOPSOLDER
 10
-0.0122835
 20
0.019685
 30
0.0
 11
-0.0477165
 21
0.019685
 31
0.0
  0
LINE
  5
30C
  8
TOPSOLDER
 10
-0.0477165
 20
0.019685
 30
0.0
 11
-0.0477165
 21
-0.019685
 31
0.0
  0
LINE
  5
30D
  8
TOPSOLDER
 10
-0.0477165
 20
-0.019685
 30
0.0
 11
-0.0122835
 21
-0.019685
 31
0.0
  0
ENDBLK
  5
305
  8
0
  0
BLOCK
  8
0
  2
R0603_32
 70
     0
 10
0.0
 20
0.0
 30
0.0
  3
R0603_32
  1

  0
LINE
  5
312
  8
TOPSOLDER
 10
0.0477165
 20
-0.019685
 30
0.0
 11
0.0477165
 21
0.019685
 31
0.0
  0
LINE
  5
313
  8
TOPSOLDER
 10
0.0477165
 20
0.019685
 30
0.0
 11
0.0122835
 21
0.019685
 31
0.0
  0
LINE
  5
314
  8
TOPSOLDER
 10
0.0122835
 20
0.019685
 30
0.0
 11
0.0122835
 21
-0.019685
 31
0.0
  0
LINE
  5
315
  8
TOPSOLDER
 10
0.0122835
 20
-0.019685
 30
0.0
 11
0.0477165
 21
-0.019685
 31
0.0
  0
LINE
  5
316
  8
TOPSOLDER
 10
-0.0122835
 20
-0.019685
 30
0.0
 11
-0.0122835
 21
0.019685
 31
0.0
  0
LINE
  5
317
  8
TOPSOLDER
 10
-0.0122835
 20
0.019685
 30
0.0
 11
-0.0477165
 21
0.019685
 31
0.0
  0
LINE
  5
318
  8
TOPSOLDER
 10
-0.0477165
 20
0.019685
 30
0.0
 11
-0.0477165
 21
-0.019685
 31
0.0
  0
LINE
  5
319
  8
TOPSOLDER
 10
-0.0477165
 20
-0.019685
 30
0.0
 11
-0.0122835
 21
-0.019685
 31
0.0
  0
ENDBLK
  5
311
  8
0
  0
BLOCK
  8
0
  2
R0603_B_33
 70
     0
 10
0.0
 20
0.0
 30
0.0
  3
R0603_B_33
  1

  0
ENDBLK
  5
31D
  8
0
  0
BLOCK
  8
0
  2
R0603_B_34
 70
     0
 10
0.0
 20
0.0
 30
0.0
  3
R0603_B_34
  1

  0
ENDBLK
  5
321
  8
0
  0
BLOCK
  8
0
  2
R0603_B_35
 70
     0
 10
0.0
 20
0.0
 30
0.0
  3
R0603_B_35
  1

  0
ENDBLK
  5
325
  8
0
  0
BLOCK
  8
0
  2
R0603_B_36
 70
     0
 10
0.0
 20
0.0
 30
0.0
  3
R0603_B_36
  1

  0
ENDBLK
  5
329
  8
0
  0
BLOCK
  8
0
  2
R0603_B_37
 70
     0
 10
0.0
 20
0.0
 30
0.0
  3
R0603_B_37
  1

  0
ENDBLK
  5
32D
  8
0
  0
BLOCK
  8
0
  2
R0603_38
 70
     0
 10
0.0
 20
0.0
 30
0.0
  3
R0603_38
  1

  0
LINE
  5
332
  8
TOPSOLDER
 10
-0.0477165
 20
0.019685
 30
0.0
 11
-0.0477165
 21
-0.019685
 31
0.0
  0
LINE
  5
333
  8
TOPSOLDER
 10
-0.0477165
 20
-0.019685
 30
0.0
 11
-0.0122835
 21
-0.019685
 31
0.0
  0
LINE
  5
334
  8
TOPSOLDER
 10
-0.0122835
 20
-0.019685
 30
0.0
 11
-0.0122835
 21
0.019685
 31
0.0
  0
LINE
  5
335
  8
TOPSOLDER
 10
-0.0122835
 20
0.019685
 30
0.0
 11
-0.0477165
 21
0.019685
 31
0.0
  0
LINE
  5
336
  8
TOPSOLDER
 10
0.0122835
 20
0.019685
 30
0.0
 11
0.0122835
 21
-0.019685
 31
0.0
  0
LINE
  5
337
  8
TOPSOLDER
 10
0.0122835
 20
-0.019685
 30
0.0
 11
0.0477165
 21
-0.019685
 31
0.0
  0
LINE
  5
338
  8
TOPSOLDER
 10
0.0477165
 20
-0.019685
 30
0.0
 11
0.0477165
 21
0.019685
 31
0.0
  0
LINE
  5
339
  8
TOPSOLDER
 10
0.0477165
 20
0.019685
 30
0.0
 11
0.0122835
 21
0.019685
 31
0.0
  0
ENDBLK
  5
331
  8
0
  0
BLOCK
  8
0
  2
R0603_39
 70
     0
 10
0.0
 20
0.0
 30
0.0
  3
R0603_39
  1

  0
LINE
  5
33E
  8
TOPSOLDER
 10
-0.0477165
 20
0.019685
 30
0.0
 11
-0.0477165
 21
-0.019685
 31
0.0
  0
LINE
  5
33F
  8
TOPSOLDER
 10
-0.0477165
 20
-0.019685
 30
0.0
 11
-0.0122835
 21
-0.019685
 31
0.0
  0
LINE
  5
340
  8
TOPSOLDER
 10
-0.0122835
 20
-0.019685
 30
0.0
 11
-0.0122835
 21
0.019685
 31
0.0
  0
LINE
  5
341
  8
TOPSOLDER
 10
-0.0122835
 20
0.019685
 30
0.0
 11
-0.0477165
 21
0.019685
 31
0.0
  0
LINE
  5
342
  8
TOPSOLDER
 10
0.0122835
 20
0.019685
 30
0.0
 11
0.0122835
 21
-0.019685
 31
0.0
  0
LINE
  5
343
  8
TOPSOLDER
 10
0.0122835
 20
-0.019685
 30
0.0
 11
0.0477165
 21
-0.019685
 31
0.0
  0
LINE
  5
344
  8
TOPSOLDER
 10
0.0477165
 20
-0.019685
 30
0.0
 11
0.0477165
 21
0.019685
 31
0.0
  0
LINE
  5
345
  8
TOPSOLDER
 10
0.0477165
 20
0.019685
 30
0.0
 11
0.0122835
 21
0.019685
 31
0.0
  0
ENDBLK
  5
33D
  8
0
  0
BLOCK
  8
0
  2
R0603_40
 70
     0
 10
0.0
 20
0.0
 30
0.0
  3
R0603_40
  1

  0
LINE
  5
34A
  8
TOPSOLDER
 10
-0.0477165
 20
0.019685
 30
0.0
 11
-0.0477165
 21
-0.019685
 31
0.0
  0
LINE
  5
34B
  8
TOPSOLDER
 10
-0.0477165
 20
-0.019685
 30
0.0
 11
-0.0122835
 21
-0.019685
 31
0.0
  0
LINE
  5
34C
  8
TOPSOLDER
 10
-0.0122835
 20
-0.019685
 30
0.0
 11
-0.0122835
 21
0.019685
 31
0.0
  0
LINE
  5
34D
  8
TOPSOLDER
 10
-0.0122835
 20
0.019685
 30
0.0
 11
-0.0477165
 21
0.019685
 31
0.0
  0
LINE
  5
34E
  8
TOPSOLDER
 10
0.0122835
 20
0.019685
 30
0.0
 11
0.0122835
 21
-0.019685
 31
0.0
  0
LINE
  5
34F
  8
TOPSOLDER
 10
0.0122835
 20
-0.019685
 30
0.0
 11
0.0477165
 21
-0.019685
 31
0.0
  0
LINE
  5
350
  8
TOPSOLDER
 10
0.0477165
 20
-0.019685
 30
0.0
 11
0.0477165
 21
0.019685
 31
0.0
  0
LINE
  5
351
  8
TOPSOLDER
 10
0.0477165
 20
0.019685
 30
0.0
 11
0.0122835
 21
0.019685
 31
0.0
  0
ENDBLK
  5
349
  8
0
  0
BLOCK
  8
0
  2
R0603_41
 70
     0
 10
0.0
 20
0.0
 30
0.0
  3
R0603_41
  1

  0
LINE
  5
356
  8
TOPSOLDER
 10
-0.0477165
 20
0.019685
 30
0.0
 11
-0.0477165
 21
-0.019685
 31
0.0
  0
LINE
  5
357
  8
TOPSOLDER
 10
-0.0477165
 20
-0.019685
 30
0.0
 11
-0.0122835
 21
-0.019685
 31
0.0
  0
LINE
  5
358
  8
TOPSOLDER
 10
-0.0122835
 20
-0.019685
 30
0.0
 11
-0.0122835
 21
0.019685
 31
0.0
  0
LINE
  5
359
  8
TOPSOLDER
 10
-0.0122835
 20
0.019685
 30
0.0
 11
-0.0477165
 21
0.019685
 31
0.0
  0
LINE
  5
35A
  8
TOPSOLDER
 10
0.0122835
 20
0.019685
 30
0.0
 11
0.0122835
 21
-0.019685
 31
0.0
  0
LINE
  5
35B
  8
TOPSOLDER
 10
0.0122835
 20
-0.019685
 30
0.0
 11
0.0477165
 21
-0.019685
 31
0.0
  0
LINE
  5
35C
  8
TOPSOLDER
 10
0.0477165
 20
-0.019685
 30
0.0
 11
0.0477165
 21
0.019685
 31
0.0
  0
LINE
  5
35D
  8
TOPSOLDER
 10
0.0477165
 20
0.019685
 30
0.0
 11
0.0122835
 21
0.019685
 31
0.0
  0
ENDBLK
  5
355
  8
0
  0
BLOCK
  8
0
  2
R0603_42
 70
     0
 10
0.0
 20
0.0
 30
0.0
  3
R0603_42
  1

  0
LINE
  5
362
  8
TOPSOLDER
 10
0.0477165
 20
-0.019685
 30
0.0
 11
0.0477165
 21
0.019685
 31
0.0
  0
LINE
  5
363
  8
TOPSOLDER
 10
0.0477165
 20
0.019685
 30
0.0
 11
0.0122835
 21
0.019685
 31
0.0
  0
LINE
  5
364
  8
TOPSOLDER
 10
0.0122835
 20
0.019685
 30
0.0
 11
0.0122835
 21
-0.019685
 31
0.0
  0
LINE
  5
365
  8
TOPSOLDER
 10
0.0122835
 20
-0.019685
 30
0.0
 11
0.0477165
 21
-0.019685
 31
0.0
  0
LINE
  5
366
  8
TOPSOLDER
 10
-0.0122835
 20
-0.019685
 30
0.0
 11
-0.0122835
 21
0.019685
 31
0.0
  0
LINE
  5
367
  8
TOPSOLDER
 10
-0.0122835
 20
0.019685
 30
0.0
 11
-0.0477165
 21
0.019685
 31
0.0
  0
LINE
  5
368
  8
TOPSOLDER
 10
-0.0477165
 20
0.019685
 30
0.0
 11
-0.0477165
 21
-0.019685
 31
0.0
  0
LINE
  5
369
  8
TOPSOLDER
 10
-0.0477165
 20
-0.019685
 30
0.0
 11
-0.0122835
 21
-0.019685
 31
0.0
  0
ENDBLK
  5
361
  8
0
  0
BLOCK
  8
0
  2
R0603_43
 70
     0
 10
0.0
 20
0.0
 30
0.0
  3
R0603_43
  1

  0
LINE
  5
36E
  8
TOPSOLDER
 10
0.0477165
 20
-0.019685
 30
0.0
 11
0.0477165
 21
0.019685
 31
0.0
  0
LINE
  5
36F
  8
TOPSOLDER
 10
0.0477165
 20
0.019685
 30
0.0
 11
0.0122835
 21
0.019685
 31
0.0
  0
LINE
  5
370
  8
TOPSOLDER
 10
0.0122835
 20
0.019685
 30
0.0
 11
0.0122835
 21
-0.019685
 31
0.0
  0
LINE
  5
371
  8
TOPSOLDER
 10
0.0122835
 20
-0.019685
 30
0.0
 11
0.0477165
 21
-0.019685
 31
0.0
  0
LINE
  5
372
  8
TOPSOLDER
 10
-0.0122835
 20
-0.019685
 30
0.0
 11
-0.0122835
 21
0.019685
 31
0.0
  0
LINE
  5
373
  8
TOPSOLDER
 10
-0.0122835
 20
0.019685
 30
0.0
 11
-0.0477165
 21
0.019685
 31
0.0
  0
LINE
  5
374
  8
TOPSOLDER
 10
-0.0477165
 20
0.019685
 30
0.0
 11
-0.0477165
 21
-0.019685
 31
0.0
  0
LINE
  5
375
  8
TOPSOLDER
 10
-0.0477165
 20
-0.019685
 30
0.0
 11
-0.0122835
 21
-0.019685
 31
0.0
  0
ENDBLK
  5
36D
  8
0
  0
BLOCK
  8
0
  2
R0603_B_44
 70
     0
 10
0.0
 20
0.0
 30
0.0
  3
R0603_B_44
  1

  0
ENDBLK
  5
379
  8
0
  0
BLOCK
  8
0
  2
R0603_B_45
 70
     0
 10
0.0
 20
0.0
 30
0.0
  3
R0603_B_45
  1

  0
ENDBLK
  5
37D
  8
0
  0
BLOCK
  8
0
  2
R0603_B_46
 70
     0
 10
0.0
 20
0.0
 30
0.0
  3
R0603_B_46
  1

  0
ENDBLK
  5
381
  8
0
  0
BLOCK
  8
0
  2
R0603_47
 70
     0
 10
0.0
 20
0.0
 30
0.0
  3
R0603_47
  1

  0
LINE
  5
386
  8
TOPSOLDER
 10
-0.0477165
 20
0.019685
 30
0.0
 11
-0.0477165
 21
-0.019685
 31
0.0
  0
LINE
  5
387
  8
TOPSOLDER
 10
-0.0477165
 20
-0.019685
 30
0.0
 11
-0.0122835
 21
-0.019685
 31
0.0
  0
LINE
  5
388
  8
TOPSOLDER
 10
-0.0122835
 20
-0.019685
 30
0.0
 11
-0.0122835
 21
0.019685
 31
0.0
  0
LINE
  5
389
  8
TOPSOLDER
 10
-0.0122835
 20
0.019685
 30
0.0
 11
-0.0477165
 21
0.019685
 31
0.0
  0
LINE
  5
38A
  8
TOPSOLDER
 10
0.0122835
 20
0.019685
 30
0.0
 11
0.0122835
 21
-0.019685
 31
0.0
  0
LINE
  5
38B
  8
TOPSOLDER
 10
0.0122835
 20
-0.019685
 30
0.0
 11
0.0477165
 21
-0.019685
 31
0.0
  0
LINE
  5
38C
  8
TOPSOLDER
 10
0.0477165
 20
-0.019685
 30
0.0
 11
0.0477165
 21
0.019685
 31
0.0
  0
LINE
  5
38D
  8
TOPSOLDER
 10
0.0477165
 20
0.019685
 30
0.0
 11
0.0122835
 21
0.019685
 31
0.0
  0
ENDBLK
  5
385
  8
0
  0
BLOCK
  8
0
  2
R0603_48
 70
     0
 10
0.0
 20
0.0
 30
0.0
  3
R0603_48
  1

  0
LINE
  5
392
  8
TOPSOLDER
 10
-0.0477165
 20
0.019685
 30
0.0
 11
-0.0477165
 21
-0.019685
 31
0.0
  0
LINE
  5
393
  8
TOPSOLDER
 10
-0.0477165
 20
-0.019685
 30
0.0
 11
-0.0122835
 21
-0.019685
 31
0.0
  0
LINE
  5
394
  8
TOPSOLDER
 10
-0.0122835
 20
-0.019685
 30
0.0
 11
-0.0122835
 21
0.019685
 31
0.0
  0
LINE
  5
395
  8
TOPSOLDER
 10
-0.0122835
 20
0.019685
 30
0.0
 11
-0.0477165
 21
0.019685
 31
0.0
  0
LINE
  5
396
  8
TOPSOLDER
 10
0.0122835
 20
0.019685
 30
0.0
 11
0.0122835
 21
-0.019685
 31
0.0
  0
LINE
  5
397
  8
TOPSOLDER
 10
0.0122835
 20
-0.019685
 30
0.0
 11
0.0477165
 21
-0.019685
 31
0.0
  0
LINE
  5
398
  8
TOPSOLDER
 10
0.0477165
 20
-0.019685
 30
0.0
 11
0.0477165
 21
0.019685
 31
0.0
  0
LINE
  5
399
  8
TOPSOLDER
 10
0.0477165
 20
0.019685
 30
0.0
 11
0.0122835
 21
0.019685
 31
0.0
  0
ENDBLK
  5
391
  8
0
  0
BLOCK
  8
0
  2
R0603_49
 70
     0
 10
0.0
 20
0.0
 30
0.0
  3
R0603_49
  1

  0
LINE
  5
39E
  8
TOPSOLDER
 10
0.0477165
 20
-0.019685
 30
0.0
 11
0.0477165
 21
0.019685
 31
0.0
  0
LINE
  5
39F
  8
TOPSOLDER
 10
0.0477165
 20
0.019685
 30
0.0
 11
0.0122835
 21
0.019685
 31
0.0
  0
LINE
  5
3A0
  8
TOPSOLDER
 10
0.0122835
 20
0.019685
 30
0.0
 11
0.0122835
 21
-0.019685
 31
0.0
  0
LINE
  5
3A1
  8
TOPSOLDER
 10
0.0122835
 20
-0.019685
 30
0.0
 11
0.0477165
 21
-0.019685
 31
0.0
  0
LINE
  5
3A2
  8
TOPSOLDER
 10
-0.0122835
 20
-0.019685
 30
0.0
 11
-0.0122835
 21
0.019685
 31
0.0
  0
LINE
  5
3A3
  8
TOPSOLDER
 10
-0.0122835
 20
0.019685
 30
0.0
 11
-0.0477165
 21
0.019685
 31
0.0
  0
LINE
  5
3A4
  8
TOPSOLDER
 10
-0.0477165
 20
0.019685
 30
0.0
 11
-0.0477165
 21
-0.019685
 31
0.0
  0
LINE
  5
3A5
  8
TOPSOLDER
 10
-0.0477165
 20
-0.019685
 30
0.0
 11
-0.0122835
 21
-0.019685
 31
0.0
  0
ENDBLK
  5
39D
  8
0
  0
BLOCK
  8
0
  2
R0603_50
 70
     0
 10
0.0
 20
0.0
 30
0.0
  3
R0603_50
  1

  0
LINE
  5
3AA
  8
TOPSOLDER
 10
0.0477165
 20
-0.019685
 30
0.0
 11
0.0477165
 21
0.019685
 31
0.0
  0
LINE
  5
3AB
  8
TOPSOLDER
 10
0.0477165
 20
0.019685
 30
0.0
 11
0.0122835
 21
0.019685
 31
0.0
  0
LINE
  5
3AC
  8
TOPSOLDER
 10
0.0122835
 20
0.019685
 30
0.0
 11
0.0122835
 21
-0.019685
 31
0.0
  0
LINE
  5
3AD
  8
TOPSOLDER
 10
0.0122835
 20
-0.019685
 30
0.0
 11
0.0477165
 21
-0.019685
 31
0.0
  0
LINE
  5
3AE
  8
TOPSOLDER
 10
-0.0122835
 20
-0.019685
 30
0.0
 11
-0.0122835
 21
0.019685
 31
0.0
  0
LINE
  5
3AF
  8
TOPSOLDER
 10
-0.0122835
 20
0.019685
 30
0.0
 11
-0.0477165
 21
0.019685
 31
0.0
  0
LINE
  5
3B0
  8
TOPSOLDER
 10
-0.0477165
 20
0.019685
 30
0.0
 11
-0.0477165
 21
-0.019685
 31
0.0
  0
LINE
  5
3B1
  8
TOPSOLDER
 10
-0.0477165
 20
-0.019685
 30
0.0
 11
-0.0122835
 21
-0.019685
 31
0.0
  0
ENDBLK
  5
3A9
  8
0
  0
BLOCK
  8
0
  2
R0402_51
 70
     0
 10
0.0
 20
0.0
 30
0.0
  3
R0402_51
  1

  0
LINE
  5
3B6
  8
TOPSOLDER
 10
-0.0334645
 20
0.015748
 30
0.0
 11
-0.0334645
 21
-0.015748
 31
0.0
  0
LINE
  5
3B7
  8
TOPSOLDER
 10
-0.0334645
 20
-0.015748
 30
0.0
 11
-0.0059055
 21
-0.015748
 31
0.0
  0
LINE
  5
3B8
  8
TOPSOLDER
 10
-0.0059055
 20
-0.015748
 30
0.0
 11
-0.0059055
 21
0.015748
 31
0.0
  0
LINE
  5
3B9
  8
TOPSOLDER
 10
-0.0059055
 20
0.015748
 30
0.0
 11
-0.0334645
 21
0.015748
 31
0.0
  0
LINE
  5
3BA
  8
TOPSOLDER
 10
0.0059055
 20
0.015748
 30
0.0
 11
0.0059055
 21
-0.015748
 31
0.0
  0
LINE
  5
3BB
  8
TOPSOLDER
 10
0.0059055
 20
-0.015748
 30
0.0
 11
0.0334645
 21
-0.015748
 31
0.0
  0
LINE
  5
3BC
  8
TOPSOLDER
 10
0.0334645
 20
-0.015748
 30
0.0
 11
0.0334645
 21
0.015748
 31
0.0
  0
LINE
  5
3BD
  8
TOPSOLDER
 10
0.0334645
 20
0.015748
 30
0.0
 11
0.0059055
 21
0.015748
 31
0.0
  0
ENDBLK
  5
3B5
  8
0
  0
BLOCK
  8
0
  2
R0603_52
 70
     0
 10
0.0
 20
0.0
 30
0.0
  3
R0603_52
  1

  0
LINE
  5
3C2
  8
TOPSOLDER
 10
0.0477165
 20
-0.019685
 30
0.0
 11
0.0477165
 21
0.019685
 31
0.0
  0
LINE
  5
3C3
  8
TOPSOLDER
 10
0.0477165
 20
0.019685
 30
0.0
 11
0.0122835
 21
0.019685
 31
0.0
  0
LINE
  5
3C4
  8
TOPSOLDER
 10
0.0122835
 20
0.019685
 30
0.0
 11
0.0122835
 21
-0.019685
 31
0.0
  0
LINE
  5
3C5
  8
TOPSOLDER
 10
0.0122835
 20
-0.019685
 30
0.0
 11
0.0477165
 21
-0.019685
 31
0.0
  0
LINE
  5
3C6
  8
TOPSOLDER
 10
-0.0122835
 20
-0.019685
 30
0.0
 11
-0.0122835
 21
0.019685
 31
0.0
  0
LINE
  5
3C7
  8
TOPSOLDER
 10
-0.0122835
 20
0.019685
 30
0.0
 11
-0.0477165
 21
0.019685
 31
0.0
  0
LINE
  5
3C8
  8
TOPSOLDER
 10
-0.0477165
 20
0.019685
 30
0.0
 11
-0.0477165
 21
-0.019685
 31
0.0
  0
LINE
  5
3C9
  8
TOPSOLDER
 10
-0.0477165
 20
-0.019685
 30
0.0
 11
-0.0122835
 21
-0.019685
 31
0.0
  0
ENDBLK
  5
3C1
  8
0
  0
BLOCK
  8
0
  2
R0603_53
 70
     0
 10
0.0
 20
0.0
 30
0.0
  3
R0603_53
  1

  0
LINE
  5
3CE
  8
TOPSOLDER
 10
-0.0477165
 20
0.019685
 30
0.0
 11
-0.0477165
 21
-0.019685
 31
0.0
  0
LINE
  5
3CF
  8
TOPSOLDER
 10
-0.0477165
 20
-0.019685
 30
0.0
 11
-0.0122835
 21
-0.019685
 31
0.0
  0
LINE
  5
3D0
  8
TOPSOLDER
 10
-0.0122835
 20
-0.019685
 30
0.0
 11
-0.0122835
 21
0.019685
 31
0.0
  0
LINE
  5
3D1
  8
TOPSOLDER
 10
-0.0122835
 20
0.019685
 30
0.0
 11
-0.0477165
 21
0.019685
 31
0.0
  0
LINE
  5
3D2
  8
TOPSOLDER
 10
0.0122835
 20
0.019685
 30
0.0
 11
0.0122835
 21
-0.019685
 31
0.0
  0
LINE
  5
3D3
  8
TOPSOLDER
 10
0.0122835
 20
-0.019685
 30
0.0
 11
0.0477165
 21
-0.019685
 31
0.0
  0
LINE
  5
3D4
  8
TOPSOLDER
 10
0.0477165
 20
-0.019685
 30
0.0
 11
0.0477165
 21
0.019685
 31
0.0
  0
LINE
  5
3D5
  8
TOPSOLDER
 10
0.0477165
 20
0.019685
 30
0.0
 11
0.0122835
 21
0.019685
 31
0.0
  0
ENDBLK
  5
3CD
  8
0
  0
BLOCK
  8
0
  2
R0603_54
 70
     0
 10
0.0
 20
0.0
 30
0.0
  3
R0603_54
  1

  0
LINE
  5
3DA
  8
TOPSOLDER
 10
0.0477165
 20
-0.019685
 30
0.0
 11
0.0477165
 21
0.019685
 31
0.0
  0
LINE
  5
3DB
  8
TOPSOLDER
 10
0.0477165
 20
0.019685
 30
0.0
 11
0.0122835
 21
0.019685
 31
0.0
  0
LINE
  5
3DC
  8
TOPSOLDER
 10
0.0122835
 20
0.019685
 30
0.0
 11
0.0122835
 21
-0.019685
 31
0.0
  0
LINE
  5
3DD
  8
TOPSOLDER
 10
0.0122835
 20
-0.019685
 30
0.0
 11
0.0477165
 21
-0.019685
 31
0.0
  0
LINE
  5
3DE
  8
TOPSOLDER
 10
-0.0122835
 20
-0.019685
 30
0.0
 11
-0.0122835
 21
0.019685
 31
0.0
  0
LINE
  5
3DF
  8
TOPSOLDER
 10
-0.0122835
 20
0.019685
 30
0.0
 11
-0.0477165
 21
0.019685
 31
0.0
  0
LINE
  5
3E0
  8
TOPSOLDER
 10
-0.0477165
 20
0.019685
 30
0.0
 11
-0.0477165
 21
-0.019685
 31
0.0
  0
LINE
  5
3E1
  8
TOPSOLDER
 10
-0.0477165
 20
-0.019685
 30
0.0
 11
-0.0122835
 21
-0.019685
 31
0.0
  0
ENDBLK
  5
3D9
  8
0
  0
BLOCK
  8
0
  2
R0603_55
 70
     0
 10
0.0
 20
0.0
 30
0.0
  3
R0603_55
  1

  0
LINE
  5
3E6
  8
TOPSOLDER
 10
0.0477165
 20
-0.019685
 30
0.0
 11
0.0477165
 21
0.019685
 31
0.0
  0
LINE
  5
3E7
  8
TOPSOLDER
 10
0.0477165
 20
0.019685
 30
0.0
 11
0.0122835
 21
0.019685
 31
0.0
  0
LINE
  5
3E8
  8
TOPSOLDER
 10
0.0122835
 20
0.019685
 30
0.0
 11
0.0122835
 21
-0.019685
 31
0.0
  0
LINE
  5
3E9
  8
TOPSOLDER
 10
0.0122835
 20
-0.019685
 30
0.0
 11
0.0477165
 21
-0.019685
 31
0.0
  0
LINE
  5
3EA
  8
TOPSOLDER
 10
-0.0122835
 20
-0.019685
 30
0.0
 11
-0.0122835
 21
0.019685
 31
0.0
  0
LINE
  5
3EB
  8
TOPSOLDER
 10
-0.0122835
 20
0.019685
 30
0.0
 11
-0.0477165
 21
0.019685
 31
0.0
  0
LINE
  5
3EC
  8
TOPSOLDER
 10
-0.0477165
 20
0.019685
 30
0.0
 11
-0.0477165
 21
-0.019685
 31
0.0
  0
LINE
  5
3ED
  8
TOPSOLDER
 10
-0.0477165
 20
-0.019685
 30
0.0
 11
-0.0122835
 21
-0.019685
 31
0.0
  0
ENDBLK
  5
3E5
  8
0
  0
BLOCK
  8
0
  2
R0603_56
 70
     0
 10
0.0
 20
0.0
 30
0.0
  3
R0603_56
  1

  0
LINE
  5
3F2
  8
TOPSOLDER
 10
0.0477165
 20
-0.019685
 30
0.0
 11
0.0477165
 21
0.019685
 31
0.0
  0
LINE
  5
3F3
  8
TOPSOLDER
 10
0.0477165
 20
0.019685
 30
0.0
 11
0.0122835
 21
0.019685
 31
0.0
  0
LINE
  5
3F4
  8
TOPSOLDER
 10
0.0122835
 20
0.019685
 30
0.0
 11
0.0122835
 21
-0.019685
 31
0.0
  0
LINE
  5
3F5
  8
TOPSOLDER
 10
0.0122835
 20
-0.019685
 30
0.0
 11
0.0477165
 21
-0.019685
 31
0.0
  0
LINE
  5
3F6
  8
TOPSOLDER
 10
-0.0122835
 20
-0.019685
 30
0.0
 11
-0.0122835
 21
0.019685
 31
0.0
  0
LINE
  5
3F7
  8
TOPSOLDER
 10
-0.0122835
 20
0.019685
 30
0.0
 11
-0.0477165
 21
0.019685
 31
0.0
  0
LINE
  5
3F8
  8
TOPSOLDER
 10
-0.0477165
 20
0.019685
 30
0.0
 11
-0.0477165
 21
-0.019685
 31
0.0
  0
LINE
  5
3F9
  8
TOPSOLDER
 10
-0.0477165
 20
-0.019685
 30
0.0
 11
-0.0122835
 21
-0.019685
 31
0.0
  0
ENDBLK
  5
3F1
  8
0
  0
BLOCK
  8
0
  2
R0603_57
 70
     0
 10
0.0
 20
0.0
 30
0.0
  3
R0603_57
  1

  0
LINE
  5
3FE
  8
TOPSOLDER
 10
-0.0477165
 20
0.019685
 30
0.0
 11
-0.0477165
 21
-0.019685
 31
0.0
  0
LINE
  5
3FF
  8
TOPSOLDER
 10
-0.0477165
 20
-0.019685
 30
0.0
 11
-0.0122835
 21
-0.019685
 31
0.0
  0
LINE
  5
400
  8
TOPSOLDER
 10
-0.0122835
 20
-0.019685
 30
0.0
 11
-0.0122835
 21
0.019685
 31
0.0
  0
LINE
  5
401
  8
TOPSOLDER
 10
-0.0122835
 20
0.019685
 30
0.0
 11
-0.0477165
 21
0.019685
 31
0.0
  0
LINE
  5
402
  8
TOPSOLDER
 10
0.0122835
 20
0.019685
 30
0.0
 11
0.0122835
 21
-0.019685
 31
0.0
  0
LINE
  5
403
  8
TOPSOLDER
 10
0.0122835
 20
-0.019685
 30
0.0
 11
0.0477165
 21
-0.019685
 31
0.0
  0
LINE
  5
404
  8
TOPSOLDER
 10
0.0477165
 20
-0.019685
 30
0.0
 11
0.0477165
 21
0.019685
 31
0.0
  0
LINE
  5
405
  8
TOPSOLDER
 10
0.0477165
 20
0.019685
 30
0.0
 11
0.0122835
 21
0.019685
 31
0.0
  0
ENDBLK
  5
3FD
  8
0
  0
BLOCK
  8
0
  2
R0603_B_58
 70
     0
 10
0.0
 20
0.0
 30
0.0
  3
R0603_B_58
  1

  0
ENDBLK
  5
409
  8
0
  0
BLOCK
  8
0
  2
R0603_B_59
 70
     0
 10
0.0
 20
0.0
 30
0.0
  3
R0603_B_59
  1

  0
ENDBLK
  5
40D
  8
0
  0
BLOCK
  8
0
  2
R0603_B_60
 70
     0
 10
0.0
 20
0.0
 30
0.0
  3
R0603_B_60
  1

  0
ENDBLK
  5
411
  8
0
  0
BLOCK
  8
0
  2
R0603_B_61
 70
     0
 10
0.0
 20
0.0
 30
0.0
  3
R0603_B_61
  1

  0
ENDBLK
  5
415
  8
0
  0
BLOCK
  8
0
  2
R0603_62
 70
     0
 10
0.0
 20
0.0
 30
0.0
  3
R0603_62
  1

  0
LINE
  5
41A
  8
TOPSOLDER
 10
0.0477165
 20
-0.019685
 30
0.0
 11
0.0477165
 21
0.019685
 31
0.0
  0
LINE
  5
41B
  8
TOPSOLDER
 10
0.0477165
 20
0.019685
 30
0.0
 11
0.0122835
 21
0.019685
 31
0.0
  0
LINE
  5
41C
  8
TOPSOLDER
 10
0.0122835
 20
0.019685
 30
0.0
 11
0.0122835
 21
-0.019685
 31
0.0
  0
LINE
  5
41D
  8
TOPSOLDER
 10
0.0122835
 20
-0.019685
 30
0.0
 11
0.0477165
 21
-0.019685
 31
0.0
  0
LINE
  5
41E
  8
TOPSOLDER
 10
-0.0122835
 20
-0.019685
 30
0.0
 11
-0.0122835
 21
0.019685
 31
0.0
  0
LINE
  5
41F
  8
TOPSOLDER
 10
-0.0122835
 20
0.019685
 30
0.0
 11
-0.0477165
 21
0.019685
 31
0.0
  0
LINE
  5
420
  8
TOPSOLDER
 10
-0.0477165
 20
0.019685
 30
0.0
 11
-0.0477165
 21
-0.019685
 31
0.0
  0
LINE
  5
421
  8
TOPSOLDER
 10
-0.0477165
 20
-0.019685
 30
0.0
 11
-0.0122835
 21
-0.019685
 31
0.0
  0
ENDBLK
  5
419
  8
0
  0
BLOCK
  8
0
  2
R0603_B_63
 70
     0
 10
0.0
 20
0.0
 30
0.0
  3
R0603_B_63
  1

  0
ENDBLK
  5
425
  8
0
  0
BLOCK
  8
0
  2
R0603_64
 70
     0
 10
0.0
 20
0.0
 30
0.0
  3
R0603_64
  1

  0
LINE
  5
42A
  8
TOPSOLDER
 10
0.0477165
 20
-0.019685
 30
0.0
 11
0.0477165
 21
0.019685
 31
0.0
  0
LINE
  5
42B
  8
TOPSOLDER
 10
0.0477165
 20
0.019685
 30
0.0
 11
0.0122835
 21
0.019685
 31
0.0
  0
LINE
  5
42C
  8
TOPSOLDER
 10
0.0122835
 20
0.019685
 30
0.0
 11
0.0122835
 21
-0.019685
 31
0.0
  0
LINE
  5
42D
  8
TOPSOLDER
 10
0.0122835
 20
-0.019685
 30
0.0
 11
0.0477165
 21
-0.019685
 31
0.0
  0
LINE
  5
42E
  8
TOPSOLDER
 10
-0.0122835
 20
-0.019685
 30
0.0
 11
-0.0122835
 21
0.019685
 31
0.0
  0
LINE
  5
42F
  8
TOPSOLDER
 10
-0.0122835
 20
0.019685
 30
0.0
 11
-0.0477165
 21
0.019685
 31
0.0
  0
LINE
  5
430
  8
TOPSOLDER
 10
-0.0477165
 20
0.019685
 30
0.0
 11
-0.0477165
 21
-0.019685
 31
0.0
  0
LINE
  5
431
  8
TOPSOLDER
 10
-0.0477165
 20
-0.019685
 30
0.0
 11
-0.0122835
 21
-0.019685
 31
0.0
  0
ENDBLK
  5
429
  8
0
  0
BLOCK
  8
0
  2
R0603_65
 70
     0
 10
0.0
 20
0.0
 30
0.0
  3
R0603_65
  1

  0
LINE
  5
436
  8
TOPSOLDER
 10
0.0477165
 20
-0.019685
 30
0.0
 11
0.0477165
 21
0.019685
 31
0.0
  0
LINE
  5
437
  8
TOPSOLDER
 10
0.0477165
 20
0.019685
 30
0.0
 11
0.0122835
 21
0.019685
 31
0.0
  0
LINE
  5
438
  8
TOPSOLDER
 10
0.0122835
 20
0.019685
 30
0.0
 11
0.0122835
 21
-0.019685
 31
0.0
  0
LINE
  5
439
  8
TOPSOLDER
 10
0.0122835
 20
-0.019685
 30
0.0
 11
0.0477165
 21
-0.019685
 31
0.0
  0
LINE
  5
43A
  8
TOPSOLDER
 10
-0.0122835
 20
-0.019685
 30
0.0
 11
-0.0122835
 21
0.019685
 31
0.0
  0
LINE
  5
43B
  8
TOPSOLDER
 10
-0.0122835
 20
0.019685
 30
0.0
 11
-0.0477165
 21
0.019685
 31
0.0
  0
LINE
  5
43C
  8
TOPSOLDER
 10
-0.0477165
 20
0.019685
 30
0.0
 11
-0.0477165
 21
-0.019685
 31
0.0
  0
LINE
  5
43D
  8
TOPSOLDER
 10
-0.0477165
 20
-0.019685
 30
0.0
 11
-0.0122835
 21
-0.019685
 31
0.0
  0
ENDBLK
  5
435
  8
0
  0
BLOCK
  8
0
  2
R0603_66
 70
     0
 10
0.0
 20
0.0
 30
0.0
  3
R0603_66
  1

  0
LINE
  5
442
  8
TOPSOLDER
 10
0.0477165
 20
-0.019685
 30
0.0
 11
0.0477165
 21
0.019685
 31
0.0
  0
LINE
  5
443
  8
TOPSOLDER
 10
0.0477165
 20
0.019685
 30
0.0
 11
0.0122835
 21
0.019685
 31
0.0
  0
LINE
  5
444
  8
TOPSOLDER
 10
0.0122835
 20
0.019685
 30
0.0
 11
0.0122835
 21
-0.019685
 31
0.0
  0
LINE
  5
445
  8
TOPSOLDER
 10
0.0122835
 20
-0.019685
 30
0.0
 11
0.0477165
 21
-0.019685
 31
0.0
  0
LINE
  5
446
  8
TOPSOLDER
 10
-0.0122835
 20
-0.019685
 30
0.0
 11
-0.0122835
 21
0.019685
 31
0.0
  0
LINE
  5
447
  8
TOPSOLDER
 10
-0.0122835
 20
0.019685
 30
0.0
 11
-0.0477165
 21
0.019685
 31
0.0
  0
LINE
  5
448
  8
TOPSOLDER
 10
-0.0477165
 20
0.019685
 30
0.0
 11
-0.0477165
 21
-0.019685
 31
0.0
  0
LINE
  5
449
  8
TOPSOLDER
 10
-0.0477165
 20
-0.019685
 30
0.0
 11
-0.0122835
 21
-0.019685
 31
0.0
  0
ENDBLK
  5
441
  8
0
  0
BLOCK
  8
0
  2
R0603_67
 70
     0
 10
0.0
 20
0.0
 30
0.0
  3
R0603_67
  1

  0
LINE
  5
44E
  8
TOPSOLDER
 10
0.0477165
 20
-0.019685
 30
0.0
 11
0.0477165
 21
0.019685
 31
0.0
  0
LINE
  5
44F
  8
TOPSOLDER
 10
0.0477165
 20
0.019685
 30
0.0
 11
0.0122835
 21
0.019685
 31
0.0
  0
LINE
  5
450
  8
TOPSOLDER
 10
0.0122835
 20
0.019685
 30
0.0
 11
0.0122835
 21
-0.019685
 31
0.0
  0
LINE
  5
451
  8
TOPSOLDER
 10
0.0122835
 20
-0.019685
 30
0.0
 11
0.0477165
 21
-0.019685
 31
0.0
  0
LINE
  5
452
  8
TOPSOLDER
 10
-0.0122835
 20
-0.019685
 30
0.0
 11
-0.0122835
 21
0.019685
 31
0.0
  0
LINE
  5
453
  8
TOPSOLDER
 10
-0.0122835
 20
0.019685
 30
0.0
 11
-0.0477165
 21
0.019685
 31
0.0
  0
LINE
  5
454
  8
TOPSOLDER
 10
-0.0477165
 20
0.019685
 30
0.0
 11
-0.0477165
 21
-0.019685
 31
0.0
  0
LINE
  5
455
  8
TOPSOLDER
 10
-0.0477165
 20
-0.019685
 30
0.0
 11
-0.0122835
 21
-0.019685
 31
0.0
  0
ENDBLK
  5
44D
  8
0
  0
BLOCK
  8
0
  2
R0603_68
 70
     0
 10
0.0
 20
0.0
 30
0.0
  3
R0603_68
  1

  0
LINE
  5
45A
  8
TOPSOLDER
 10
0.0477165
 20
-0.019685
 30
0.0
 11
0.0477165
 21
0.019685
 31
0.0
  0
LINE
  5
45B
  8
TOPSOLDER
 10
0.0477165
 20
0.019685
 30
0.0
 11
0.0122835
 21
0.019685
 31
0.0
  0
LINE
  5
45C
  8
TOPSOLDER
 10
0.0122835
 20
0.019685
 30
0.0
 11
0.0122835
 21
-0.019685
 31
0.0
  0
LINE
  5
45D
  8
TOPSOLDER
 10
0.0122835
 20
-0.019685
 30
0.0
 11
0.0477165
 21
-0.019685
 31
0.0
  0
LINE
  5
45E
  8
TOPSOLDER
 10
-0.0122835
 20
-0.019685
 30
0.0
 11
-0.0122835
 21
0.019685
 31
0.0
  0
LINE
  5
45F
  8
TOPSOLDER
 10
-0.0122835
 20
0.019685
 30
0.0
 11
-0.0477165
 21
0.019685
 31
0.0
  0
LINE
  5
460
  8
TOPSOLDER
 10
-0.0477165
 20
0.019685
 30
0.0
 11
-0.0477165
 21
-0.019685
 31
0.0
  0
LINE
  5
461
  8
TOPSOLDER
 10
-0.0477165
 20
-0.019685
 30
0.0
 11
-0.0122835
 21
-0.019685
 31
0.0
  0
ENDBLK
  5
459
  8
0
  0
BLOCK
  8
0
  2
R0603_B_69
 70
     0
 10
0.0
 20
0.0
 30
0.0
  3
R0603_B_69
  1

  0
ENDBLK
  5
465
  8
0
  0
BLOCK
  8
0
  2
R0603_B_70
 70
     0
 10
0.0
 20
0.0
 30
0.0
  3
R0603_B_70
  1

  0
ENDBLK
  5
469
  8
0
  0
BLOCK
  8
0
  2
R0603_B_71
 70
     0
 10
0.0
 20
0.0
 30
0.0
  3
R0603_B_71
  1

  0
ENDBLK
  5
46D
  8
0
  0
BLOCK
  8
0
  2
R0603_B_72
 70
     0
 10
0.0
 20
0.0
 30
0.0
  3
R0603_B_72
  1

  0
ENDBLK
  5
471
  8
0
  0
BLOCK
  8
0
  2
R0603_73
 70
     0
 10
0.0
 20
0.0
 30
0.0
  3
R0603_73
  1

  0
LINE
  5
476
  8
TOPSOLDER
 10
-0.0477165
 20
0.019685
 30
0.0
 11
-0.0477165
 21
-0.019685
 31
0.0
  0
LINE
  5
477
  8
TOPSOLDER
 10
-0.0477165
 20
-0.019685
 30
0.0
 11
-0.0122835
 21
-0.019685
 31
0.0
  0
LINE
  5
478
  8
TOPSOLDER
 10
-0.0122835
 20
-0.019685
 30
0.0
 11
-0.0122835
 21
0.019685
 31
0.0
  0
LINE
  5
479
  8
TOPSOLDER
 10
-0.0122835
 20
0.019685
 30
0.0
 11
-0.0477165
 21
0.019685
 31
0.0
  0
LINE
  5
47A
  8
TOPSOLDER
 10
0.0122835
 20
0.019685
 30
0.0
 11
0.0122835
 21
-0.019685
 31
0.0
  0
LINE
  5
47B
  8
TOPSOLDER
 10
0.0122835
 20
-0.019685
 30
0.0
 11
0.0477165
 21
-0.019685
 31
0.0
  0
LINE
  5
47C
  8
TOPSOLDER
 10
0.0477165
 20
-0.019685
 30
0.0
 11
0.0477165
 21
0.019685
 31
0.0
  0
LINE
  5
47D
  8
TOPSOLDER
 10
0.0477165
 20
0.019685
 30
0.0
 11
0.0122835
 21
0.019685
 31
0.0
  0
ENDBLK
  5
475
  8
0
  0
BLOCK
  8
0
  2
R0603_74
 70
     0
 10
0.0
 20
0.0
 30
0.0
  3
R0603_74
  1

  0
LINE
  5
482
  8
TOPSOLDER
 10
-0.0477165
 20
0.019685
 30
0.0
 11
-0.0477165
 21
-0.019685
 31
0.0
  0
LINE
  5
483
  8
TOPSOLDER
 10
-0.0477165
 20
-0.019685
 30
0.0
 11
-0.0122835
 21
-0.019685
 31
0.0
  0
LINE
  5
484
  8
TOPSOLDER
 10
-0.0122835
 20
-0.019685
 30
0.0
 11
-0.0122835
 21
0.019685
 31
0.0
  0
LINE
  5
485
  8
TOPSOLDER
 10
-0.0122835
 20
0.019685
 30
0.0
 11
-0.0477165
 21
0.019685
 31
0.0
  0
LINE
  5
486
  8
TOPSOLDER
 10
0.0122835
 20
0.019685
 30
0.0
 11
0.0122835
 21
-0.019685
 31
0.0
  0
LINE
  5
487
  8
TOPSOLDER
 10
0.0122835
 20
-0.019685
 30
0.0
 11
0.0477165
 21
-0.019685
 31
0.0
  0
LINE
  5
488
  8
TOPSOLDER
 10
0.0477165
 20
-0.019685
 30
0.0
 11
0.0477165
 21
0.019685
 31
0.0
  0
LINE
  5
489
  8
TOPSOLDER
 10
0.0477165
 20
0.019685
 30
0.0
 11
0.0122835
 21
0.019685
 31
0.0
  0
ENDBLK
  5
481
  8
0
  0
BLOCK
  8
0
  2
X1_75
 70
     0
 10
0.0
 20
0.0
 30
0.0
  3
X1_75
  1

  0
CIRCLE
  5
48E
  8
TOPSOLDER
 10
0.0
 20
0.0
 30
0.0
 40
0.0364685
  0
ENDBLK
  5
48D
  8
0
  0
BLOCK
  8
0
  2
X1_76
 70
     0
 10
0.0
 20
0.0
 30
0.0
  3
X1_76
  1

  0
CIRCLE
  5
493
  8
TOPSOLDER
 10
0.0
 20
0.0
 30
0.0
 40
0.0364685
  0
ENDBLK
  5
492
  8
0
  0
BLOCK
  8
0
  2
X1_77
 70
     0
 10
0.0
 20
0.0
 30
0.0
  3
X1_77
  1

  0
CIRCLE
  5
498
  8
TOPSOLDER
 10
0.0
 20
0.0
 30
0.0
 40
0.0364685
  0
ENDBLK
  5
497
  8
0
  0
BLOCK
  8
0
  2
X1_78
 70
     0
 10
0.0
 20
0.0
 30
0.0
  3
X1_78
  1

  0
CIRCLE
  5
49D
  8
TOPSOLDER
 10
0.0
 20
0.0
 30
0.0
 40
0.0364685
  0
ENDBLK
  5
49C
  8
0
  0
BLOCK
  8
0
  2
X1_79
 70
     0
 10
0.0
 20
0.0
 30
0.0
  3
X1_79
  1

  0
CIRCLE
  5
4A2
  8
TOPSOLDER
 10
0.0
 20
0.0
 30
0.0
 40
0.0364685
  0
ENDBLK
  5
4A1
  8
0
  0
BLOCK
  8
0
  2
DLW21S_80
 70
     0
 10
0.0
 20
0.0
 30
0.0
  3
DLW21S_80
  1

  0
LINE
  5
4A7
  8
TOPSOLDER
 10
-0.0206693
 20
-0.0334645
 30
0.0
 11
-0.0206693
 21
-0.0059055
 31
0.0
  0
LINE
  5
4A8
  8
TOPSOLDER
 10
-0.0206693
 20
-0.0059055
 30
0.0
 11
-0.0501969
 21
-0.0059055
 31
0.0
  0
LINE
  5
4A9
  8
TOPSOLDER
 10
-0.0501969
 20
-0.0059055
 30
0.0
 11
-0.0501969
 21
-0.0334645
 31
0.0
  0
LINE
  5
4AA
  8
TOPSOLDER
 10
-0.0501969
 20
-0.0334645
 30
0.0
 11
-0.0206693
 21
-0.0334645
 31
0.0
  0
LINE
  5
4AB
  8
TOPSOLDER
 10
-0.0206693
 20
0.0059055
 30
0.0
 11
-0.0206693
 21
0.0334645
 31
0.0
  0
LINE
  5
4AC
  8
TOPSOLDER
 10
-0.0206693
 20
0.0334645
 30
0.0
 11
-0.0501969
 21
0.0334645
 31
0.0
  0
LINE
  5
4AD
  8
TOPSOLDER
 10
-0.0501969
 20
0.0334645
 30
0.0
 11
-0.0501969
 21
0.0059055
 31
0.0
  0
LINE
  5
4AE
  8
TOPSOLDER
 10
-0.0501969
 20
0.0059055
 30
0.0
 11
-0.0206693
 21
0.0059055
 31
0.0
  0
LINE
  5
4AF
  8
TOPSOLDER
 10
0.0501969
 20
0.0059055
 30
0.0
 11
0.0501969
 21
0.0334645
 31
0.0
  0
LINE
  5
4B0
  8
TOPSOLDER
 10
0.0501969
 20
0.0334645
 30
0.0
 11
0.0206693
 21
0.0334645
 31
0.0
  0
LINE
  5
4B1
  8
TOPSOLDER
 10
0.0206693
 20
0.0334645
 30
0.0
 11
0.0206693
 21
0.0059055
 31
0.0
  0
LINE
  5
4B2
  8
TOPSOLDER
 10
0.0206693
 20
0.0059055
 30
0.0
 11
0.0501969
 21
0.0059055
 31
0.0
  0
LINE
  5
4B3
  8
TOPSOLDER
 10
0.0501969
 20
-0.0334645
 30
0.0
 11
0.0501969
 21
-0.0059055
 31
0.0
  0
LINE
  5
4B4
  8
TOPSOLDER
 10
0.0501969
 20
-0.0059055
 30
0.0
 11
0.0206693
 21
-0.0059055
 31
0.0
  0
LINE
  5
4B5
  8
TOPSOLDER
 10
0.0206693
 20
-0.0059055
 30
0.0
 11
0.0206693
 21
-0.0334645
 31
0.0
  0
LINE
  5
4B6
  8
TOPSOLDER
 10
0.0206693
 20
-0.0334645
 30
0.0
 11
0.0501969
 21
-0.0334645
 31
0.0
  0
ENDBLK
  5
4A6
  8
0
  0
BLOCK
  8
0
  2
SDR0604_1_81
 70
     0
 10
0.0
 20
0.0
 30
0.0
  3
SDR0604_1_81
  1

  0
LINE
  5
4BB
  8
TOPSOLDER
 10
0.1062992
 20
-0.0354331
 30
0.0
 11
-0.1062992
 21
-0.0354331
 31
0.0
  0
LINE
  5
4BC
  8
TOPSOLDER
 10
-0.1062992
 20
-0.0354331
 30
0.0
 11
-0.1062992
 21
-0.1220473
 31
0.0
  0
LINE
  5
4BD
  8
TOPSOLDER
 10
-0.1062992
 20
-0.1220473
 30
0.0
 11
0.1062992
 21
-0.1220473
 31
0.0
  0
LINE
  5
4BE
  8
TOPSOLDER
 10
0.1062992
 20
-0.1220473
 30
0.0
 11
0.1062992
 21
-0.0354331
 31
0.0
  0
LINE
  5
4BF
  8
TOPSOLDER
 10
0.1043307
 20
0.1220473
 30
0.0
 11
-0.1082677
 21
0.1220473
 31
0.0
  0
LINE
  5
4C0
  8
TOPSOLDER
 10
-0.1082677
 20
0.1220473
 30
0.0
 11
-0.1082677
 21
0.0354331
 31
0.0
  0
LINE
  5
4C1
  8
TOPSOLDER
 10
-0.1082677
 20
0.0354331
 30
0.0
 11
0.1043307
 21
0.0354331
 31
0.0
  0
LINE
  5
4C2
  8
TOPSOLDER
 10
0.1043307
 20
0.0354331
 30
0.0
 11
0.1043307
 21
0.1220473
 31
0.0
  0
ENDBLK
  5
4BA
  8
0
  0
BLOCK
  8
0
  2
PSH02_3W_UHLOVY___________
 70
     0
 10
0.0
 20
0.0
 30
0.0
  3
PSH02_3W_UHLOVY___________
  1

  0
LINE
  5
4C7
  8
TOPSOLDER
 10
-0.0364685
 20
0.0364685
 30
0.0
 11
-0.0364685
 21
-0.0364685
 31
0.0
  0
LINE
  5
4C8
  8
TOPSOLDER
 10
-0.0364685
 20
-0.0364685
 30
0.0
 11
0.0364685
 21
-0.0364685
 31
0.0
  0
LINE
  5
4C9
  8
TOPSOLDER
 10
0.0364685
 20
-0.0364685
 30
0.0
 11
0.0364685
 21
0.0364685
 31
0.0
  0
LINE
  5
4CA
  8
TOPSOLDER
 10
0.0364685
 20
0.0364685
 30
0.0
 11
-0.0364685
 21
0.0364685
 31
0.0
  0
CIRCLE
  5
4CB
  8
TOPSOLDER
 10
-0.1
 20
0.0
 30
0.0
 40
0.0364685
  0
CIRCLE
  5
4CC
  8
TOPSOLDER
 10
-0.2
 20
0.0
 30
0.0
 40
0.0364685
  0
ENDBLK
  5
4C6
  8
0
  0
BLOCK
  8
0
  2
PSH02_5W_UHLOVY_83
 70
     0
 10
0.0
 20
0.0
 30
0.0
  3
PSH02_5W_UHLOVY_83
  1

  0
LINE
  5
4D1
  8
TOPSOLDER
 10
-0.0364685
 20
0.0364685
 30
0.0
 11
-0.0364685
 21
-0.0364685
 31
0.0
  0
LINE
  5
4D2
  8
TOPSOLDER
 10
-0.0364685
 20
-0.0364685
 30
0.0
 11
0.0364685
 21
-0.0364685
 31
0.0
  0
LINE
  5
4D3
  8
TOPSOLDER
 10
0.0364685
 20
-0.0364685
 30
0.0
 11
0.0364685
 21
0.0364685
 31
0.0
  0
LINE
  5
4D4
  8
TOPSOLDER
 10
0.0364685
 20
0.0364685
 30
0.0
 11
-0.0364685
 21
0.0364685
 31
0.0
  0
CIRCLE
  5
4D5
  8
TOPSOLDER
 10
-0.1
 20
0.0
 30
0.0
 40
0.0364685
  0
CIRCLE
  5
4D6
  8
TOPSOLDER
 10
-0.4
 20
0.0
 30
0.0
 40
0.0364685
  0
CIRCLE
  5
4D7
  8
TOPSOLDER
 10
-0.3
 20
0.0
 30
0.0
 40
0.0364685
  0
CIRCLE
  5
4D8
  8
TOPSOLDER
 10
-0.2
 20
0.0
 30
0.0
 40
0.0364685
  0
ENDBLK
  5
4D0
  8
0
  0
BLOCK
  8
0
  2
SOT23_5_84
 70
     0
 10
0.0
 20
0.0
 30
0.0
  3
SOT23_5_84
  1

  0
LINE
  5
4DD
  8
TOPSOLDER
 10
-0.0167323
 20
0.0866142
 30
0.0
 11
0.0167323
 21
0.0866142
 31
0.0
  0
LINE
  5
4DE
  8
TOPSOLDER
 10
0.0167323
 20
0.0866142
 30
0.0
 11
0.0167323
 21
0.1496062
 31
0.0
  0
LINE
  5
4DF
  8
TOPSOLDER
 10
0.0167323
 20
0.1496062
 30
0.0
 11
-0.0167323
 21
0.1496062
 31
0.0
  0
LINE
  5
4E0
  8
TOPSOLDER
 10
-0.0167323
 20
0.1496062
 30
0.0
 11
-0.0167323
 21
0.0866142
 31
0.0
  0
LINE
  5
4E1
  8
TOPSOLDER
 10
0.0620079
 20
0.0866142
 30
0.0
 11
0.0954725
 21
0.0866142
 31
0.0
  0
LINE
  5
4E2
  8
TOPSOLDER
 10
0.0954725
 20
0.0866142
 30
0.0
 11
0.0954725
 21
0.1496062
 31
0.0
  0
LINE
  5
4E3
  8
TOPSOLDER
 10
0.0954725
 20
0.1496062
 30
0.0
 11
0.0620079
 21
0.1496062
 31
0.0
  0
LINE
  5
4E4
  8
TOPSOLDER
 10
0.0620079
 20
0.1496062
 30
0.0
 11
0.0620079
 21
0.0866142
 31
0.0
  0
LINE
  5
4E5
  8
TOPSOLDER
 10
0.0620079
 20
-0.031496
 30
0.0
 11
0.0954725
 21
-0.031496
 31
0.0
  0
LINE
  5
4E6
  8
TOPSOLDER
 10
0.0954725
 20
-0.031496
 30
0.0
 11
0.0954725
 21
0.031496
 31
0.0
  0
LINE
  5
4E7
  8
TOPSOLDER
 10
0.0954725
 20
0.031496
 30
0.0
 11
0.0620079
 21
0.031496
 31
0.0
  0
LINE
  5
4E8
  8
TOPSOLDER
 10
0.0620079
 20
0.031496
 30
0.0
 11
0.0620079
 21
-0.031496
 31
0.0
  0
LINE
  5
4E9
  8
TOPSOLDER
 10
0.0226378
 20
-0.031496
 30
0.0
 11
0.0561024
 21
-0.031496
 31
0.0
  0
LINE
  5
4EA
  8
TOPSOLDER
 10
0.0561024
 20
-0.031496
 30
0.0
 11
0.0561024
 21
0.031496
 31
0.0
  0
LINE
  5
4EB
  8
TOPSOLDER
 10
0.0561024
 20
0.031496
 30
0.0
 11
0.0226378
 21
0.031496
 31
0.0
  0
LINE
  5
4EC
  8
TOPSOLDER
 10
0.0226378
 20
0.031496
 30
0.0
 11
0.0226378
 21
-0.031496
 31
0.0
  0
LINE
  5
4ED
  8
TOPSOLDER
 10
-0.0167323
 20
-0.031496
 30
0.0
 11
0.0167323
 21
-0.031496
 31
0.0
  0
LINE
  5
4EE
  8
TOPSOLDER
 10
0.0167323
 20
-0.031496
 30
0.0
 11
0.0167323
 21
0.031496
 31
0.0
  0
LINE
  5
4EF
  8
TOPSOLDER
 10
0.0167323
 20
0.031496
 30
0.0
 11
-0.0167323
 21
0.031496
 31
0.0
  0
LINE
  5
4F0
  8
TOPSOLDER
 10
-0.0167323
 20
0.031496
 30
0.0
 11
-0.0167323
 21
-0.031496
 31
0.0
  0
ENDBLK
  5
4DC
  8
0
  0
BLOCK
  8
0
  2
TSSOP16_85
 70
     0
 10
0.0
 20
0.0
 30
0.0
  3
TSSOP16_85
  1

  0
LINE
  5
4F5
  8
TOPSOLDER
 10
-0.0099685
 20
-0.194878
 30
0.0
 11
-0.0099685
 21
-0.261815
 31
0.0
  0
LINE
  5
4F6
  8
TOPSOLDER
 10
-0.0099685
 20
-0.261815
 30
0.0
 11
0.0099685
 21
-0.261815
 31
0.0
  0
LINE
  5
4F7
  8
TOPSOLDER
 10
0.0099685
 20
-0.261815
 30
0.0
 11
0.0099685
 21
-0.194878
 31
0.0
  0
LINE
  5
4F8
  8
TOPSOLDER
 10
0.0099685
 20
-0.194878
 30
0.0
 11
-0.0099685
 21
-0.194878
 31
0.0
  0
LINE
  5
4F9
  8
TOPSOLDER
 10
0.0156224
 20
-0.1948778
 30
0.0
 11
0.0156224
 21
-0.2618148
 31
0.0
  0
LINE
  5
4FA
  8
TOPSOLDER
 10
0.0156224
 20
-0.2618148
 30
0.0
 11
0.0355594
 21
-0.2618148
 31
0.0
  0
LINE
  5
4FB
  8
TOPSOLDER
 10
0.0355594
 20
-0.2618148
 30
0.0
 11
0.0355594
 21
-0.1948778
 31
0.0
  0
LINE
  5
4FC
  8
TOPSOLDER
 10
0.0355594
 20
-0.1948778
 30
0.0
 11
0.0156224
 21
-0.1948778
 31
0.0
  0
LINE
  5
4FD
  8
TOPSOLDER
 10
0.0412126
 20
-0.194878
 30
0.0
 11
0.0412126
 21
-0.261815
 31
0.0
  0
LINE
  5
4FE
  8
TOPSOLDER
 10
0.0412126
 20
-0.261815
 30
0.0
 11
0.0611496
 21
-0.261815
 31
0.0
  0
LINE
  5
4FF
  8
TOPSOLDER
 10
0.0611496
 20
-0.261815
 30
0.0
 11
0.0611496
 21
-0.194878
 31
0.0
  0
LINE
  5
500
  8
TOPSOLDER
 10
0.0611496
 20
-0.194878
 30
0.0
 11
0.0412126
 21
-0.194878
 31
0.0
  0
LINE
  5
501
  8
TOPSOLDER
 10
0.0668032
 20
-0.194878
 30
0.0
 11
0.0668032
 21
-0.261815
 31
0.0
  0
LINE
  5
502
  8
TOPSOLDER
 10
0.0668032
 20
-0.261815
 30
0.0
 11
0.0867402
 21
-0.261815
 31
0.0
  0
LINE
  5
503
  8
TOPSOLDER
 10
0.0867402
 20
-0.261815
 30
0.0
 11
0.0867402
 21
-0.194878
 31
0.0
  0
LINE
  5
504
  8
TOPSOLDER
 10
0.0867402
 20
-0.194878
 30
0.0
 11
0.0668032
 21
-0.194878
 31
0.0
  0
LINE
  5
505
  8
TOPSOLDER
 10
0.0923937
 20
-0.194878
 30
0.0
 11
0.0923937
 21
-0.261815
 31
0.0
  0
LINE
  5
506
  8
TOPSOLDER
 10
0.0923937
 20
-0.261815
 30
0.0
 11
0.1123307
 21
-0.261815
 31
0.0
  0
LINE
  5
507
  8
TOPSOLDER
 10
0.1123307
 20
-0.261815
 30
0.0
 11
0.1123307
 21
-0.194878
 31
0.0
  0
LINE
  5
508
  8
TOPSOLDER
 10
0.1123307
 20
-0.194878
 30
0.0
 11
0.0923937
 21
-0.194878
 31
0.0
  0
LINE
  5
509
  8
TOPSOLDER
 10
0.1179843
 20
-0.194878
 30
0.0
 11
0.1179843
 21
-0.261815
 31
0.0
  0
LINE
  5
50A
  8
TOPSOLDER
 10
0.1179843
 20
-0.261815
 30
0.0
 11
0.1379213
 21
-0.261815
 31
0.0
  0
LINE
  5
50B
  8
TOPSOLDER
 10
0.1379213
 20
-0.261815
 30
0.0
 11
0.1379213
 21
-0.194878
 31
0.0
  0
LINE
  5
50C
  8
TOPSOLDER
 10
0.1379213
 20
-0.194878
 30
0.0
 11
0.1179843
 21
-0.194878
 31
0.0
  0
LINE
  5
50D
  8
TOPSOLDER
 10
0.1435748
 20
-0.194878
 30
0.0
 11
0.1435748
 21
-0.261815
 31
0.0
  0
LINE
  5
50E
  8
TOPSOLDER
 10
0.1435748
 20
-0.261815
 30
0.0
 11
0.1635118
 21
-0.261815
 31
0.0
  0
LINE
  5
50F
  8
TOPSOLDER
 10
0.1635118
 20
-0.261815
 30
0.0
 11
0.1635118
 21
-0.194878
 31
0.0
  0
LINE
  5
510
  8
TOPSOLDER
 10
0.1635118
 20
-0.194878
 30
0.0
 11
0.1435748
 21
-0.194878
 31
0.0
  0
LINE
  5
511
  8
TOPSOLDER
 10
0.1691654
 20
-0.194878
 30
0.0
 11
0.1691654
 21
-0.261815
 31
0.0
  0
LINE
  5
512
  8
TOPSOLDER
 10
0.1691654
 20
-0.261815
 30
0.0
 11
0.1891024
 21
-0.261815
 31
0.0
  0
LINE
  5
513
  8
TOPSOLDER
 10
0.1891024
 20
-0.261815
 30
0.0
 11
0.1891024
 21
-0.194878
 31
0.0
  0
LINE
  5
514
  8
TOPSOLDER
 10
0.1891024
 20
-0.194878
 30
0.0
 11
0.1691654
 21
-0.194878
 31
0.0
  0
LINE
  5
515
  8
TOPSOLDER
 10
-0.0099685
 20
0.0334685
 30
0.0
 11
-0.0099685
 21
-0.0334685
 31
0.0
  0
LINE
  5
516
  8
TOPSOLDER
 10
-0.0099685
 20
-0.0334685
 30
0.0
 11
0.0099685
 21
-0.0334685
 31
0.0
  0
LINE
  5
517
  8
TOPSOLDER
 10
0.0099685
 20
-0.0334685
 30
0.0
 11
0.0099685
 21
0.0334685
 31
0.0
  0
LINE
  5
518
  8
TOPSOLDER
 10
0.0099685
 20
0.0334685
 30
0.0
 11
-0.0099685
 21
0.0334685
 31
0.0
  0
LINE
  5
519
  8
TOPSOLDER
 10
0.0156221
 20
0.0334685
 30
0.0
 11
0.0156221
 21
-0.0334685
 31
0.0
  0
LINE
  5
51A
  8
TOPSOLDER
 10
0.0156221
 20
-0.0334685
 30
0.0
 11
0.0355591
 21
-0.0334685
 31
0.0
  0
LINE
  5
51B
  8
TOPSOLDER
 10
0.0355591
 20
-0.0334685
 30
0.0
 11
0.0355591
 21
0.0334685
 31
0.0
  0
LINE
  5
51C
  8
TOPSOLDER
 10
0.0355591
 20
0.0334685
 30
0.0
 11
0.0156221
 21
0.0334685
 31
0.0
  0
LINE
  5
51D
  8
TOPSOLDER
 10
0.0412126
 20
0.0334685
 30
0.0
 11
0.0412126
 21
-0.0334685
 31
0.0
  0
LINE
  5
51E
  8
TOPSOLDER
 10
0.0412126
 20
-0.0334685
 30
0.0
 11
0.0611496
 21
-0.0334685
 31
0.0
  0
LINE
  5
51F
  8
TOPSOLDER
 10
0.0611496
 20
-0.0334685
 30
0.0
 11
0.0611496
 21
0.0334685
 31
0.0
  0
LINE
  5
520
  8
TOPSOLDER
 10
0.0611496
 20
0.0334685
 30
0.0
 11
0.0412126
 21
0.0334685
 31
0.0
  0
LINE
  5
521
  8
TOPSOLDER
 10
0.0668032
 20
0.0334685
 30
0.0
 11
0.0668032
 21
-0.0334685
 31
0.0
  0
LINE
  5
522
  8
TOPSOLDER
 10
0.0668032
 20
-0.0334685
 30
0.0
 11
0.0867402
 21
-0.0334685
 31
0.0
  0
LINE
  5
523
  8
TOPSOLDER
 10
0.0867402
 20
-0.0334685
 30
0.0
 11
0.0867402
 21
0.0334685
 31
0.0
  0
LINE
  5
524
  8
TOPSOLDER
 10
0.0867402
 20
0.0334685
 30
0.0
 11
0.0668032
 21
0.0334685
 31
0.0
  0
LINE
  5
525
  8
TOPSOLDER
 10
0.0923937
 20
0.0334685
 30
0.0
 11
0.0923937
 21
-0.0334685
 31
0.0
  0
LINE
  5
526
  8
TOPSOLDER
 10
0.0923937
 20
-0.0334685
 30
0.0
 11
0.1123307
 21
-0.0334685
 31
0.0
  0
LINE
  5
527
  8
TOPSOLDER
 10
0.1123307
 20
-0.0334685
 30
0.0
 11
0.1123307
 21
0.0334685
 31
0.0
  0
LINE
  5
528
  8
TOPSOLDER
 10
0.1123307
 20
0.0334685
 30
0.0
 11
0.0923937
 21
0.0334685
 31
0.0
  0
LINE
  5
529
  8
TOPSOLDER
 10
0.1179843
 20
0.0334685
 30
0.0
 11
0.1179843
 21
-0.0334685
 31
0.0
  0
LINE
  5
52A
  8
TOPSOLDER
 10
0.1179843
 20
-0.0334685
 30
0.0
 11
0.1379213
 21
-0.0334685
 31
0.0
  0
LINE
  5
52B
  8
TOPSOLDER
 10
0.1379213
 20
-0.0334685
 30
0.0
 11
0.1379213
 21
0.0334685
 31
0.0
  0
LINE
  5
52C
  8
TOPSOLDER
 10
0.1379213
 20
0.0334685
 30
0.0
 11
0.1179843
 21
0.0334685
 31
0.0
  0
LINE
  5
52D
  8
TOPSOLDER
 10
0.1435748
 20
0.0334685
 30
0.0
 11
0.1435748
 21
-0.0334685
 31
0.0
  0
LINE
  5
52E
  8
TOPSOLDER
 10
0.1435748
 20
-0.0334685
 30
0.0
 11
0.1635118
 21
-0.0334685
 31
0.0
  0
LINE
  5
52F
  8
TOPSOLDER
 10
0.1635118
 20
-0.0334685
 30
0.0
 11
0.1635118
 21
0.0334685
 31
0.0
  0
LINE
  5
530
  8
TOPSOLDER
 10
0.1635118
 20
0.0334685
 30
0.0
 11
0.1435748
 21
0.0334685
 31
0.0
  0
LINE
  5
531
  8
TOPSOLDER
 10
0.1691654
 20
0.0334685
 30
0.0
 11
0.1691654
 21
-0.0334685
 31
0.0
  0
LINE
  5
532
  8
TOPSOLDER
 10
0.1691654
 20
-0.0334685
 30
0.0
 11
0.1891024
 21
-0.0334685
 31
0.0
  0
LINE
  5
533
  8
TOPSOLDER
 10
0.1891024
 20
-0.0334685
 30
0.0
 11
0.1891024
 21
0.0334685
 31
0.0
  0
LINE
  5
534
  8
TOPSOLDER
 10
0.1891024
 20
0.0334685
 30
0.0
 11
0.1691654
 21
0.0334685
 31
0.0
  0
ENDBLK
  5
4F4
  8
0
  0
BLOCK
  8
0
  2
SOT23_5_86
 70
     0
 10
0.0
 20
0.0
 30
0.0
  3
SOT23_5_86
  1

  0
LINE
  5
539
  8
TOPSOLDER
 10
-0.0167323
 20
0.0866142
 30
0.0
 11
0.0167323
 21
0.0866142
 31
0.0
  0
LINE
  5
53A
  8
TOPSOLDER
 10
0.0167323
 20
0.0866142
 30
0.0
 11
0.0167323
 21
0.1496062
 31
0.0
  0
LINE
  5
53B
  8
TOPSOLDER
 10
0.0167323
 20
0.1496062
 30
0.0
 11
-0.0167323
 21
0.1496062
 31
0.0
  0
LINE
  5
53C
  8
TOPSOLDER
 10
-0.0167323
 20
0.1496062
 30
0.0
 11
-0.0167323
 21
0.0866142
 31
0.0
  0
LINE
  5
53D
  8
TOPSOLDER
 10
0.0620079
 20
0.0866142
 30
0.0
 11
0.0954725
 21
0.0866142
 31
0.0
  0
LINE
  5
53E
  8
TOPSOLDER
 10
0.0954725
 20
0.0866142
 30
0.0
 11
0.0954725
 21
0.1496062
 31
0.0
  0
LINE
  5
53F
  8
TOPSOLDER
 10
0.0954725
 20
0.1496062
 30
0.0
 11
0.0620079
 21
0.1496062
 31
0.0
  0
LINE
  5
540
  8
TOPSOLDER
 10
0.0620079
 20
0.1496062
 30
0.0
 11
0.0620079
 21
0.0866142
 31
0.0
  0
LINE
  5
541
  8
TOPSOLDER
 10
0.0620079
 20
-0.031496
 30
0.0
 11
0.0954725
 21
-0.031496
 31
0.0
  0
LINE
  5
542
  8
TOPSOLDER
 10
0.0954725
 20
-0.031496
 30
0.0
 11
0.0954725
 21
0.031496
 31
0.0
  0
LINE
  5
543
  8
TOPSOLDER
 10
0.0954725
 20
0.031496
 30
0.0
 11
0.0620079
 21
0.031496
 31
0.0
  0
LINE
  5
544
  8
TOPSOLDER
 10
0.0620079
 20
0.031496
 30
0.0
 11
0.0620079
 21
-0.031496
 31
0.0
  0
LINE
  5
545
  8
TOPSOLDER
 10
0.0226378
 20
-0.031496
 30
0.0
 11
0.0561024
 21
-0.031496
 31
0.0
  0
LINE
  5
546
  8
TOPSOLDER
 10
0.0561024
 20
-0.031496
 30
0.0
 11
0.0561024
 21
0.031496
 31
0.0
  0
LINE
  5
547
  8
TOPSOLDER
 10
0.0561024
 20
0.031496
 30
0.0
 11
0.0226378
 21
0.031496
 31
0.0
  0
LINE
  5
548
  8
TOPSOLDER
 10
0.0226378
 20
0.031496
 30
0.0
 11
0.0226378
 21
-0.031496
 31
0.0
  0
LINE
  5
549
  8
TOPSOLDER
 10
-0.0167323
 20
-0.031496
 30
0.0
 11
0.0167323
 21
-0.031496
 31
0.0
  0
LINE
  5
54A
  8
TOPSOLDER
 10
0.0167323
 20
-0.031496
 30
0.0
 11
0.0167323
 21
0.031496
 31
0.0
  0
LINE
  5
54B
  8
TOPSOLDER
 10
0.0167323
 20
0.031496
 30
0.0
 11
-0.0167323
 21
0.031496
 31
0.0
  0
LINE
  5
54C
  8
TOPSOLDER
 10
-0.0167323
 20
0.031496
 30
0.0
 11
-0.0167323
 21
-0.031496
 31
0.0
  0
ENDBLK
  5
538
  8
0
  0
BLOCK
  8
0
  2
MSOP_10_B_87
 70
     0
 10
0.0
 20
0.0
 30
0.0
  3
MSOP_10_B_87
  1

  0
ENDBLK
  5
550
  8
0
  0
BLOCK
  8
0
  2
R0805_88
 70
     0
 10
0.0
 20
0.0
 30
0.0
  3
R0805_88
  1

  0
LINE
  5
555
  8
TOPSOLDER
 10
-0.0669685
 20
0.0279685
 30
0.0
 11
-0.0669685
 21
-0.0279685
 31
0.0
  0
LINE
  5
556
  8
TOPSOLDER
 10
-0.0669685
 20
-0.0279685
 30
0.0
 11
-0.0230315
 21
-0.0279685
 31
0.0
  0
LINE
  5
557
  8
TOPSOLDER
 10
-0.0230315
 20
-0.0279685
 30
0.0
 11
-0.0230315
 21
0.0279685
 31
0.0
  0
LINE
  5
558
  8
TOPSOLDER
 10
-0.0230315
 20
0.0279685
 30
0.0
 11
-0.0669685
 21
0.0279685
 31
0.0
  0
LINE
  5
559
  8
TOPSOLDER
 10
0.0230315
 20
0.0279685
 30
0.0
 11
0.0230315
 21
-0.0279685
 31
0.0
  0
LINE
  5
55A
  8
TOPSOLDER
 10
0.0230315
 20
-0.0279685
 30
0.0
 11
0.0669685
 21
-0.0279685
 31
0.0
  0
LINE
  5
55B
  8
TOPSOLDER
 10
0.0669685
 20
-0.0279685
 30
0.0
 11
0.0669685
 21
0.0279685
 31
0.0
  0
LINE
  5
55C
  8
TOPSOLDER
 10
0.0669685
 20
0.0279685
 30
0.0
 11
0.0230315
 21
0.0279685
 31
0.0
  0
ENDBLK
  5
554
  8
0
  0
BLOCK
  8
0
  2
R0805_89
 70
     0
 10
0.0
 20
0.0
 30
0.0
  3
R0805_89
  1

  0
LINE
  5
561
  8
TOPSOLDER
 10
0.0669685
 20
-0.0279685
 30
0.0
 11
0.0669685
 21
0.0279685
 31
0.0
  0
LINE
  5
562
  8
TOPSOLDER
 10
0.0669685
 20
0.0279685
 30
0.0
 11
0.0230315
 21
0.0279685
 31
0.0
  0
LINE
  5
563
  8
TOPSOLDER
 10
0.0230315
 20
0.0279685
 30
0.0
 11
0.0230315
 21
-0.0279685
 31
0.0
  0
LINE
  5
564
  8
TOPSOLDER
 10
0.0230315
 20
-0.0279685
 30
0.0
 11
0.0669685
 21
-0.0279685
 31
0.0
  0
LINE
  5
565
  8
TOPSOLDER
 10
-0.0230315
 20
-0.0279685
 30
0.0
 11
-0.0230315
 21
0.0279685
 31
0.0
  0
LINE
  5
566
  8
TOPSOLDER
 10
-0.0230315
 20
0.0279685
 30
0.0
 11
-0.0669685
 21
0.0279685
 31
0.0
  0
LINE
  5
567
  8
TOPSOLDER
 10
-0.0669685
 20
0.0279685
 30
0.0
 11
-0.0669685
 21
-0.0279685
 31
0.0
  0
LINE
  5
568
  8
TOPSOLDER
 10
-0.0669685
 20
-0.0279685
 30
0.0
 11
-0.0230315
 21
-0.0279685
 31
0.0
  0
ENDBLK
  5
560
  8
0
  0
BLOCK
  8
0
  2
R0805_90
 70
     0
 10
0.0
 20
0.0
 30
0.0
  3
R0805_90
  1

  0
LINE
  5
56D
  8
TOPSOLDER
 10
-0.0669685
 20
0.0279685
 30
0.0
 11
-0.0669685
 21
-0.0279685
 31
0.0
  0
LINE
  5
56E
  8
TOPSOLDER
 10
-0.0669685
 20
-0.0279685
 30
0.0
 11
-0.0230315
 21
-0.0279685
 31
0.0
  0
LINE
  5
56F
  8
TOPSOLDER
 10
-0.0230315
 20
-0.0279685
 30
0.0
 11
-0.0230315
 21
0.0279685
 31
0.0
  0
LINE
  5
570
  8
TOPSOLDER
 10
-0.0230315
 20
0.0279685
 30
0.0
 11
-0.0669685
 21
0.0279685
 31
0.0
  0
LINE
  5
571
  8
TOPSOLDER
 10
0.0230315
 20
0.0279685
 30
0.0
 11
0.0230315
 21
-0.0279685
 31
0.0
  0
LINE
  5
572
  8
TOPSOLDER
 10
0.0230315
 20
-0.0279685
 30
0.0
 11
0.0669685
 21
-0.0279685
 31
0.0
  0
LINE
  5
573
  8
TOPSOLDER
 10
0.0669685
 20
-0.0279685
 30
0.0
 11
0.0669685
 21
0.0279685
 31
0.0
  0
LINE
  5
574
  8
TOPSOLDER
 10
0.0669685
 20
0.0279685
 30
0.0
 11
0.0230315
 21
0.0279685
 31
0.0
  0
ENDBLK
  5
56C
  8
0
  0
BLOCK
  8
0
  2
R0805_91
 70
     0
 10
0.0
 20
0.0
 30
0.0
  3
R0805_91
  1

  0
LINE
  5
579
  8
TOPSOLDER
 10
-0.0669685
 20
0.0279685
 30
0.0
 11
-0.0669685
 21
-0.0279685
 31
0.0
  0
LINE
  5
57A
  8
TOPSOLDER
 10
-0.0669685
 20
-0.0279685
 30
0.0
 11
-0.0230315
 21
-0.0279685
 31
0.0
  0
LINE
  5
57B
  8
TOPSOLDER
 10
-0.0230315
 20
-0.0279685
 30
0.0
 11
-0.0230315
 21
0.0279685
 31
0.0
  0
LINE
  5
57C
  8
TOPSOLDER
 10
-0.0230315
 20
0.0279685
 30
0.0
 11
-0.0669685
 21
0.0279685
 31
0.0
  0
LINE
  5
57D
  8
TOPSOLDER
 10
0.0230315
 20
0.0279685
 30
0.0
 11
0.0230315
 21
-0.0279685
 31
0.0
  0
LINE
  5
57E
  8
TOPSOLDER
 10
0.0230315
 20
-0.0279685
 30
0.0
 11
0.0669685
 21
-0.0279685
 31
0.0
  0
LINE
  5
57F
  8
TOPSOLDER
 10
0.0669685
 20
-0.0279685
 30
0.0
 11
0.0669685
 21
0.0279685
 31
0.0
  0
LINE
  5
580
  8
TOPSOLDER
 10
0.0669685
 20
0.0279685
 30
0.0
 11
0.0230315
 21
0.0279685
 31
0.0
  0
ENDBLK
  5
578
  8
0
  0
BLOCK
  8
0
  2
R0805_92
 70
     0
 10
0.0
 20
0.0
 30
0.0
  3
R0805_92
  1

  0
LINE
  5
585
  8
TOPSOLDER
 10
-0.0669685
 20
0.0279685
 30
0.0
 11
-0.0669685
 21
-0.0279685
 31
0.0
  0
LINE
  5
586
  8
TOPSOLDER
 10
-0.0669685
 20
-0.0279685
 30
0.0
 11
-0.0230315
 21
-0.0279685
 31
0.0
  0
LINE
  5
587
  8
TOPSOLDER
 10
-0.0230315
 20
-0.0279685
 30
0.0
 11
-0.0230315
 21
0.0279685
 31
0.0
  0
LINE
  5
588
  8
TOPSOLDER
 10
-0.0230315
 20
0.0279685
 30
0.0
 11
-0.0669685
 21
0.0279685
 31
0.0
  0
LINE
  5
589
  8
TOPSOLDER
 10
0.0230315
 20
0.0279685
 30
0.0
 11
0.0230315
 21
-0.0279685
 31
0.0
  0
LINE
  5
58A
  8
TOPSOLDER
 10
0.0230315
 20
-0.0279685
 30
0.0
 11
0.0669685
 21
-0.0279685
 31
0.0
  0
LINE
  5
58B
  8
TOPSOLDER
 10
0.0669685
 20
-0.0279685
 30
0.0
 11
0.0669685
 21
0.0279685
 31
0.0
  0
LINE
  5
58C
  8
TOPSOLDER
 10
0.0669685
 20
0.0279685
 30
0.0
 11
0.0230315
 21
0.0279685
 31
0.0
  0
ENDBLK
  5
584
  8
0
  0
BLOCK
  8
0
  2
DO214AC_93
 70
     0
 10
0.0
 20
0.0
 30
0.0
  3
DO214AC_93
  1

  0
LINE
  5
591
  8
TOPSOLDER
 10
-0.1299212
 20
0.0433071
 30
0.0
 11
-0.1299212
 21
-0.0433071
 31
0.0
  0
LINE
  5
592
  8
TOPSOLDER
 10
-0.1299212
 20
-0.0433071
 30
0.0
 11
-0.0551182
 21
-0.0433071
 31
0.0
  0
LINE
  5
593
  8
TOPSOLDER
 10
-0.0551182
 20
-0.0433071
 30
0.0
 11
-0.0551182
 21
0.0433071
 31
0.0
  0
LINE
  5
594
  8
TOPSOLDER
 10
-0.0551182
 20
0.0433071
 30
0.0
 11
-0.1299212
 21
0.0433071
 31
0.0
  0
LINE
  5
595
  8
TOPSOLDER
 10
0.0551182
 20
0.0433071
 30
0.0
 11
0.0551182
 21
-0.0433071
 31
0.0
  0
LINE
  5
596
  8
TOPSOLDER
 10
0.0551182
 20
-0.0433071
 30
0.0
 11
0.1299212
 21
-0.0433071
 31
0.0
  0
LINE
  5
597
  8
TOPSOLDER
 10
0.1299212
 20
-0.0433071
 30
0.0
 11
0.1299212
 21
0.0433071
 31
0.0
  0
LINE
  5
598
  8
TOPSOLDER
 10
0.1299212
 20
0.0433071
 30
0.0
 11
0.0551182
 21
0.0433071
 31
0.0
  0
ENDBLK
  5
590
  8
0
  0
BLOCK
  8
0
  2
CES2_5_7_LEZI__6_8_15__94
 70
     0
 10
0.0
 20
0.0
 30
0.0
  3
CES2_5_7_LEZI__6_8_15__94
  1

  0
CIRCLE
  5
59D
  8
TOPSOLDER
 10
-0.0002285
 20
-0.0003246
 30
0.0
 40
0.0334685
  0
CIRCLE
  5
59E
  8
TOPSOLDER
 10
0.0997716
 20
-0.0003247
 30
0.0
 40
0.0334685
  0
ENDBLK
  5
59C
  8
0
  0
BLOCK
  8
0
  2
C0603_95
 70
     0
 10
0.0
 20
0.0
 30
0.0
  3
C0603_95
  1

  0
LINE
  5
5A3
  8
TOPSOLDER
 10
0.0477165
 20
-0.019685
 30
0.0
 11
0.0477165
 21
0.019685
 31
0.0
  0
LINE
  5
5A4
  8
TOPSOLDER
 10
0.0477165
 20
0.019685
 30
0.0
 11
0.0122835
 21
0.019685
 31
0.0
  0
LINE
  5
5A5
  8
TOPSOLDER
 10
0.0122835
 20
0.019685
 30
0.0
 11
0.0122835
 21
-0.019685
 31
0.0
  0
LINE
  5
5A6
  8
TOPSOLDER
 10
0.0122835
 20
-0.019685
 30
0.0
 11
0.0477165
 21
-0.019685
 31
0.0
  0
LINE
  5
5A7
  8
TOPSOLDER
 10
-0.0122835
 20
-0.019685
 30
0.0
 11
-0.0122835
 21
0.019685
 31
0.0
  0
LINE
  5
5A8
  8
TOPSOLDER
 10
-0.0122835
 20
0.019685
 30
0.0
 11
-0.0477165
 21
0.019685
 31
0.0
  0
LINE
  5
5A9
  8
TOPSOLDER
 10
-0.0477165
 20
0.019685
 30
0.0
 11
-0.0477165
 21
-0.019685
 31
0.0
  0
LINE
  5
5AA
  8
TOPSOLDER
 10
-0.0477165
 20
-0.019685
 30
0.0
 11
-0.0122835
 21
-0.019685
 31
0.0
  0
ENDBLK
  5
5A2
  8
0
  0
BLOCK
  8
0
  2
C0603_96
 70
     0
 10
0.0
 20
0.0
 30
0.0
  3
C0603_96
  1

  0
LINE
  5
5AF
  8
TOPSOLDER
 10
0.0477165
 20
-0.019685
 30
0.0
 11
0.0477165
 21
0.019685
 31
0.0
  0
LINE
  5
5B0
  8
TOPSOLDER
 10
0.0477165
 20
0.019685
 30
0.0
 11
0.0122835
 21
0.019685
 31
0.0
  0
LINE
  5
5B1
  8
TOPSOLDER
 10
0.0122835
 20
0.019685
 30
0.0
 11
0.0122835
 21
-0.019685
 31
0.0
  0
LINE
  5
5B2
  8
TOPSOLDER
 10
0.0122835
 20
-0.019685
 30
0.0
 11
0.0477165
 21
-0.019685
 31
0.0
  0
LINE
  5
5B3
  8
TOPSOLDER
 10
-0.0122835
 20
-0.019685
 30
0.0
 11
-0.0122835
 21
0.019685
 31
0.0
  0
LINE
  5
5B4
  8
TOPSOLDER
 10
-0.0122835
 20
0.019685
 30
0.0
 11
-0.0477165
 21
0.019685
 31
0.0
  0
LINE
  5
5B5
  8
TOPSOLDER
 10
-0.0477165
 20
0.019685
 30
0.0
 11
-0.0477165
 21
-0.019685
 31
0.0
  0
LINE
  5
5B6
  8
TOPSOLDER
 10
-0.0477165
 20
-0.019685
 30
0.0
 11
-0.0122835
 21
-0.019685
 31
0.0
  0
ENDBLK
  5
5AE
  8
0
  0
BLOCK
  8
0
  2
C0603_97
 70
     0
 10
0.0
 20
0.0
 30
0.0
  3
C0603_97
  1

  0
LINE
  5
5BB
  8
TOPSOLDER
 10
0.0477165
 20
-0.019685
 30
0.0
 11
0.0477165
 21
0.019685
 31
0.0
  0
LINE
  5
5BC
  8
TOPSOLDER
 10
0.0477165
 20
0.019685
 30
0.0
 11
0.0122835
 21
0.019685
 31
0.0
  0
LINE
  5
5BD
  8
TOPSOLDER
 10
0.0122835
 20
0.019685
 30
0.0
 11
0.0122835
 21
-0.019685
 31
0.0
  0
LINE
  5
5BE
  8
TOPSOLDER
 10
0.0122835
 20
-0.019685
 30
0.0
 11
0.0477165
 21
-0.019685
 31
0.0
  0
LINE
  5
5BF
  8
TOPSOLDER
 10
-0.0122835
 20
-0.019685
 30
0.0
 11
-0.0122835
 21
0.019685
 31
0.0
  0
LINE
  5
5C0
  8
TOPSOLDER
 10
-0.0122835
 20
0.019685
 30
0.0
 11
-0.0477165
 21
0.019685
 31
0.0
  0
LINE
  5
5C1
  8
TOPSOLDER
 10
-0.0477165
 20
0.019685
 30
0.0
 11
-0.0477165
 21
-0.019685
 31
0.0
  0
LINE
  5
5C2
  8
TOPSOLDER
 10
-0.0477165
 20
-0.019685
 30
0.0
 11
-0.0122835
 21
-0.019685
 31
0.0
  0
ENDBLK
  5
5BA
  8
0
  0
BLOCK
  8
0
  2
C0603_98
 70
     0
 10
0.0
 20
0.0
 30
0.0
  3
C0603_98
  1

  0
LINE
  5
5C7
  8
TOPSOLDER
 10
0.0477165
 20
-0.019685
 30
0.0
 11
0.0477165
 21
0.019685
 31
0.0
  0
LINE
  5
5C8
  8
TOPSOLDER
 10
0.0477165
 20
0.019685
 30
0.0
 11
0.0122835
 21
0.019685
 31
0.0
  0
LINE
  5
5C9
  8
TOPSOLDER
 10
0.0122835
 20
0.019685
 30
0.0
 11
0.0122835
 21
-0.019685
 31
0.0
  0
LINE
  5
5CA
  8
TOPSOLDER
 10
0.0122835
 20
-0.019685
 30
0.0
 11
0.0477165
 21
-0.019685
 31
0.0
  0
LINE
  5
5CB
  8
TOPSOLDER
 10
-0.0122835
 20
-0.019685
 30
0.0
 11
-0.0122835
 21
0.019685
 31
0.0
  0
LINE
  5
5CC
  8
TOPSOLDER
 10
-0.0122835
 20
0.019685
 30
0.0
 11
-0.0477165
 21
0.019685
 31
0.0
  0
LINE
  5
5CD
  8
TOPSOLDER
 10
-0.0477165
 20
0.019685
 30
0.0
 11
-0.0477165
 21
-0.019685
 31
0.0
  0
LINE
  5
5CE
  8
TOPSOLDER
 10
-0.0477165
 20
-0.019685
 30
0.0
 11
-0.0122835
 21
-0.019685
 31
0.0
  0
ENDBLK
  5
5C6
  8
0
  0
BLOCK
  8
0
  2
C0603_99
 70
     0
 10
0.0
 20
0.0
 30
0.0
  3
C0603_99
  1

  0
LINE
  5
5D3
  8
TOPSOLDER
 10
0.0477165
 20
-0.019685
 30
0.0
 11
0.0477165
 21
0.019685
 31
0.0
  0
LINE
  5
5D4
  8
TOPSOLDER
 10
0.0477165
 20
0.019685
 30
0.0
 11
0.0122835
 21
0.019685
 31
0.0
  0
LINE
  5
5D5
  8
TOPSOLDER
 10
0.0122835
 20
0.019685
 30
0.0
 11
0.0122835
 21
-0.019685
 31
0.0
  0
LINE
  5
5D6
  8
TOPSOLDER
 10
0.0122835
 20
-0.019685
 30
0.0
 11
0.0477165
 21
-0.019685
 31
0.0
  0
LINE
  5
5D7
  8
TOPSOLDER
 10
-0.0122835
 20
-0.019685
 30
0.0
 11
-0.0122835
 21
0.019685
 31
0.0
  0
LINE
  5
5D8
  8
TOPSOLDER
 10
-0.0122835
 20
0.019685
 30
0.0
 11
-0.0477165
 21
0.019685
 31
0.0
  0
LINE
  5
5D9
  8
TOPSOLDER
 10
-0.0477165
 20
0.019685
 30
0.0
 11
-0.0477165
 21
-0.019685
 31
0.0
  0
LINE
  5
5DA
  8
TOPSOLDER
 10
-0.0477165
 20
-0.019685
 30
0.0
 11
-0.0122835
 21
-0.019685
 31
0.0
  0
ENDBLK
  5
5D2
  8
0
  0
BLOCK
  8
0
  2
TAJA_100
 70
     0
 10
0.0
 20
0.0
 30
0.0
  3
TAJA_100
  1

  0
LINE
  5
5DF
  8
TOPSOLDER
 10
0.0255905
 20
-0.0315355
 30
0.0
 11
-0.0255905
 21
-0.0315355
 31
0.0
  0
LINE
  5
5E0
  8
TOPSOLDER
 10
-0.0255905
 20
-0.0315355
 30
0.0
 11
-0.0255905
 21
-0.0984645
 31
0.0
  0
LINE
  5
5E1
  8
TOPSOLDER
 10
-0.0255905
 20
-0.0984645
 30
0.0
 11
0.0255905
 21
-0.0984645
 31
0.0
  0
LINE
  5
5E2
  8
TOPSOLDER
 10
0.0255905
 20
-0.0984645
 30
0.0
 11
0.0255905
 21
-0.0315355
 31
0.0
  0
LINE
  5
5E3
  8
TOPSOLDER
 10
0.0255905
 20
0.0984645
 30
0.0
 11
-0.0255905
 21
0.0984645
 31
0.0
  0
LINE
  5
5E4
  8
TOPSOLDER
 10
-0.0255905
 20
0.0984645
 30
0.0
 11
-0.0255905
 21
0.0315355
 31
0.0
  0
LINE
  5
5E5
  8
TOPSOLDER
 10
-0.0255905
 20
0.0315355
 30
0.0
 11
0.0255905
 21
0.0315355
 31
0.0
  0
LINE
  5
5E6
  8
TOPSOLDER
 10
0.0255905
 20
0.0315355
 30
0.0
 11
0.0255905
 21
0.0984645
 31
0.0
  0
ENDBLK
  5
5DE
  8
0
  0
BLOCK
  8
0
  2
C0603_101
 70
     0
 10
0.0
 20
0.0
 30
0.0
  3
C0603_101
  1

  0
LINE
  5
5EB
  8
TOPSOLDER
 10
0.0477165
 20
-0.019685
 30
0.0
 11
0.0477165
 21
0.019685
 31
0.0
  0
LINE
  5
5EC
  8
TOPSOLDER
 10
0.0477165
 20
0.019685
 30
0.0
 11
0.0122835
 21
0.019685
 31
0.0
  0
LINE
  5
5ED
  8
TOPSOLDER
 10
0.0122835
 20
0.019685
 30
0.0
 11
0.0122835
 21
-0.019685
 31
0.0
  0
LINE
  5
5EE
  8
TOPSOLDER
 10
0.0122835
 20
-0.019685
 30
0.0
 11
0.0477165
 21
-0.019685
 31
0.0
  0
LINE
  5
5EF
  8
TOPSOLDER
 10
-0.0122835
 20
-0.019685
 30
0.0
 11
-0.0122835
 21
0.019685
 31
0.0
  0
LINE
  5
5F0
  8
TOPSOLDER
 10
-0.0122835
 20
0.019685
 30
0.0
 11
-0.0477165
 21
0.019685
 31
0.0
  0
LINE
  5
5F1
  8
TOPSOLDER
 10
-0.0477165
 20
0.019685
 30
0.0
 11
-0.0477165
 21
-0.019685
 31
0.0
  0
LINE
  5
5F2
  8
TOPSOLDER
 10
-0.0477165
 20
-0.019685
 30
0.0
 11
-0.0122835
 21
-0.019685
 31
0.0
  0
ENDBLK
  5
5EA
  8
0
  0
BLOCK
  8
0
  2
C0603_B_102
 70
     0
 10
0.0
 20
0.0
 30
0.0
  3
C0603_B_102
  1

  0
ENDBLK
  5
5F6
  8
0
  0
BLOCK
  8
0
  2
TAJA_B_103
 70
     0
 10
0.0
 20
0.0
 30
0.0
  3
TAJA_B_103
  1

  0
ENDBLK
  5
5FA
  8
0
  0
BLOCK
  8
0
  2
C0603_B_104
 70
     0
 10
0.0
 20
0.0
 30
0.0
  3
C0603_B_104
  1

  0
ENDBLK
  5
5FE
  8
0
  0
BLOCK
  8
0
  2
TAJA_B_105
 70
     0
 10
0.0
 20
0.0
 30
0.0
  3
TAJA_B_105
  1

  0
ENDBLK
  5
602
  8
0
  0
BLOCK
  8
0
  2
TAJB_106
 70
     0
 10
0.0
 20
0.0
 30
0.0
  3
TAJB_106
  1

  0
LINE
  5
607
  8
TOPSOLDER
 10
0.0452756
 20
-0.0360315
 30
0.0
 11
-0.0452756
 21
-0.0360315
 31
0.0
  0
LINE
  5
608
  8
TOPSOLDER
 10
-0.0452756
 20
-0.0360315
 30
0.0
 11
-0.0452756
 21
-0.1039685
 31
0.0
  0
LINE
  5
609
  8
TOPSOLDER
 10
-0.0452756
 20
-0.1039685
 30
0.0
 11
0.0452756
 21
-0.1039685
 31
0.0
  0
LINE
  5
60A
  8
TOPSOLDER
 10
0.0452756
 20
-0.1039685
 30
0.0
 11
0.0452756
 21
-0.0360315
 31
0.0
  0
LINE
  5
60B
  8
TOPSOLDER
 10
0.0452755
 20
0.1039685
 30
0.0
 11
-0.0452755
 21
0.1039685
 31
0.0
  0
LINE
  5
60C
  8
TOPSOLDER
 10
-0.0452755
 20
0.1039685
 30
0.0
 11
-0.0452755
 21
0.0360315
 31
0.0
  0
LINE
  5
60D
  8
TOPSOLDER
 10
-0.0452755
 20
0.0360315
 30
0.0
 11
0.0452755
 21
0.0360315
 31
0.0
  0
LINE
  5
60E
  8
TOPSOLDER
 10
0.0452755
 20
0.0360315
 30
0.0
 11
0.0452755
 21
0.1039685
 31
0.0
  0
ENDBLK
  5
606
  8
0
  0
BLOCK
  8
0
  2
C0603_107
 70
     0
 10
0.0
 20
0.0
 30
0.0
  3
C0603_107
  1

  0
LINE
  5
613
  8
TOPSOLDER
 10
0.0477165
 20
-0.019685
 30
0.0
 11
0.0477165
 21
0.019685
 31
0.0
  0
LINE
  5
614
  8
TOPSOLDER
 10
0.0477165
 20
0.019685
 30
0.0
 11
0.0122835
 21
0.019685
 31
0.0
  0
LINE
  5
615
  8
TOPSOLDER
 10
0.0122835
 20
0.019685
 30
0.0
 11
0.0122835
 21
-0.019685
 31
0.0
  0
LINE
  5
616
  8
TOPSOLDER
 10
0.0122835
 20
-0.019685
 30
0.0
 11
0.0477165
 21
-0.019685
 31
0.0
  0
LINE
  5
617
  8
TOPSOLDER
 10
-0.0122835
 20
-0.019685
 30
0.0
 11
-0.0122835
 21
0.019685
 31
0.0
  0
LINE
  5
618
  8
TOPSOLDER
 10
-0.0122835
 20
0.019685
 30
0.0
 11
-0.0477165
 21
0.019685
 31
0.0
  0
LINE
  5
619
  8
TOPSOLDER
 10
-0.0477165
 20
0.019685
 30
0.0
 11
-0.0477165
 21
-0.019685
 31
0.0
  0
LINE
  5
61A
  8
TOPSOLDER
 10
-0.0477165
 20
-0.019685
 30
0.0
 11
-0.0122835
 21
-0.019685
 31
0.0
  0
ENDBLK
  5
612
  8
0
  0
BLOCK
  8
0
  2
C0603_108
 70
     0
 10
0.0
 20
0.0
 30
0.0
  3
C0603_108
  1

  0
LINE
  5
61F
  8
TOPSOLDER
 10
0.0477165
 20
-0.019685
 30
0.0
 11
0.0477165
 21
0.019685
 31
0.0
  0
LINE
  5
620
  8
TOPSOLDER
 10
0.0477165
 20
0.019685
 30
0.0
 11
0.0122835
 21
0.019685
 31
0.0
  0
LINE
  5
621
  8
TOPSOLDER
 10
0.0122835
 20
0.019685
 30
0.0
 11
0.0122835
 21
-0.019685
 31
0.0
  0
LINE
  5
622
  8
TOPSOLDER
 10
0.0122835
 20
-0.019685
 30
0.0
 11
0.0477165
 21
-0.019685
 31
0.0
  0
LINE
  5
623
  8
TOPSOLDER
 10
-0.0122835
 20
-0.019685
 30
0.0
 11
-0.0122835
 21
0.019685
 31
0.0
  0
LINE
  5
624
  8
TOPSOLDER
 10
-0.0122835
 20
0.019685
 30
0.0
 11
-0.0477165
 21
0.019685
 31
0.0
  0
LINE
  5
625
  8
TOPSOLDER
 10
-0.0477165
 20
0.019685
 30
0.0
 11
-0.0477165
 21
-0.019685
 31
0.0
  0
LINE
  5
626
  8
TOPSOLDER
 10
-0.0477165
 20
-0.019685
 30
0.0
 11
-0.0122835
 21
-0.019685
 31
0.0
  0
ENDBLK
  5
61E
  8
0
  0
BLOCK
  8
0
  2
C0603_109
 70
     0
 10
0.0
 20
0.0
 30
0.0
  3
C0603_109
  1

  0
LINE
  5
62B
  8
TOPSOLDER
 10
0.0477165
 20
-0.019685
 30
0.0
 11
0.0477165
 21
0.019685
 31
0.0
  0
LINE
  5
62C
  8
TOPSOLDER
 10
0.0477165
 20
0.019685
 30
0.0
 11
0.0122835
 21
0.019685
 31
0.0
  0
LINE
  5
62D
  8
TOPSOLDER
 10
0.0122835
 20
0.019685
 30
0.0
 11
0.0122835
 21
-0.019685
 31
0.0
  0
LINE
  5
62E
  8
TOPSOLDER
 10
0.0122835
 20
-0.019685
 30
0.0
 11
0.0477165
 21
-0.019685
 31
0.0
  0
LINE
  5
62F
  8
TOPSOLDER
 10
-0.0122835
 20
-0.019685
 30
0.0
 11
-0.0122835
 21
0.019685
 31
0.0
  0
LINE
  5
630
  8
TOPSOLDER
 10
-0.0122835
 20
0.019685
 30
0.0
 11
-0.0477165
 21
0.019685
 31
0.0
  0
LINE
  5
631
  8
TOPSOLDER
 10
-0.0477165
 20
0.019685
 30
0.0
 11
-0.0477165
 21
-0.019685
 31
0.0
  0
LINE
  5
632
  8
TOPSOLDER
 10
-0.0477165
 20
-0.019685
 30
0.0
 11
-0.0122835
 21
-0.019685
 31
0.0
  0
ENDBLK
  5
62A
  8
0
  0
BLOCK
  8
0
  2
C0603_110
 70
     0
 10
0.0
 20
0.0
 30
0.0
  3
C0603_110
  1

  0
LINE
  5
637
  8
TOPSOLDER
 10
0.0477165
 20
-0.019685
 30
0.0
 11
0.0477165
 21
0.019685
 31
0.0
  0
LINE
  5
638
  8
TOPSOLDER
 10
0.0477165
 20
0.019685
 30
0.0
 11
0.0122835
 21
0.019685
 31
0.0
  0
LINE
  5
639
  8
TOPSOLDER
 10
0.0122835
 20
0.019685
 30
0.0
 11
0.0122835
 21
-0.019685
 31
0.0
  0
LINE
  5
63A
  8
TOPSOLDER
 10
0.0122835
 20
-0.019685
 30
0.0
 11
0.0477165
 21
-0.019685
 31
0.0
  0
LINE
  5
63B
  8
TOPSOLDER
 10
-0.0122835
 20
-0.019685
 30
0.0
 11
-0.0122835
 21
0.019685
 31
0.0
  0
LINE
  5
63C
  8
TOPSOLDER
 10
-0.0122835
 20
0.019685
 30
0.0
 11
-0.0477165
 21
0.019685
 31
0.0
  0
LINE
  5
63D
  8
TOPSOLDER
 10
-0.0477165
 20
0.019685
 30
0.0
 11
-0.0477165
 21
-0.019685
 31
0.0
  0
LINE
  5
63E
  8
TOPSOLDER
 10
-0.0477165
 20
-0.019685
 30
0.0
 11
-0.0122835
 21
-0.019685
 31
0.0
  0
ENDBLK
  5
636
  8
0
  0
BLOCK
  8
0
  2
TAJB_111
 70
     0
 10
0.0
 20
0.0
 30
0.0
  3
TAJB_111
  1

  0
LINE
  5
643
  8
TOPSOLDER
 10
-0.0452756
 20
0.0360315
 30
0.0
 11
0.0452756
 21
0.0360315
 31
0.0
  0
LINE
  5
644
  8
TOPSOLDER
 10
0.0452756
 20
0.0360315
 30
0.0
 11
0.0452756
 21
0.1039685
 31
0.0
  0
LINE
  5
645
  8
TOPSOLDER
 10
0.0452756
 20
0.1039685
 30
0.0
 11
-0.0452756
 21
0.1039685
 31
0.0
  0
LINE
  5
646
  8
TOPSOLDER
 10
-0.0452756
 20
0.1039685
 30
0.0
 11
-0.0452756
 21
0.0360315
 31
0.0
  0
LINE
  5
647
  8
TOPSOLDER
 10
-0.0452755
 20
-0.1039685
 30
0.0
 11
0.0452755
 21
-0.1039685
 31
0.0
  0
LINE
  5
648
  8
TOPSOLDER
 10
0.0452755
 20
-0.1039685
 30
0.0
 11
0.0452755
 21
-0.0360315
 31
0.0
  0
LINE
  5
649
  8
TOPSOLDER
 10
0.0452755
 20
-0.0360315
 30
0.0
 11
-0.0452755
 21
-0.0360315
 31
0.0
  0
LINE
  5
64A
  8
TOPSOLDER
 10
-0.0452755
 20
-0.0360315
 30
0.0
 11
-0.0452755
 21
-0.1039685
 31
0.0
  0
ENDBLK
  5
642
  8
0
  0
BLOCK
  8
0
  2
C0603_112
 70
     0
 10
0.0
 20
0.0
 30
0.0
  3
C0603_112
  1

  0
LINE
  5
64F
  8
TOPSOLDER
 10
-0.0477165
 20
0.019685
 30
0.0
 11
-0.0477165
 21
-0.019685
 31
0.0
  0
LINE
  5
650
  8
TOPSOLDER
 10
-0.0477165
 20
-0.019685
 30
0.0
 11
-0.0122835
 21
-0.019685
 31
0.0
  0
LINE
  5
651
  8
TOPSOLDER
 10
-0.0122835
 20
-0.019685
 30
0.0
 11
-0.0122835
 21
0.019685
 31
0.0
  0
LINE
  5
652
  8
TOPSOLDER
 10
-0.0122835
 20
0.019685
 30
0.0
 11
-0.0477165
 21
0.019685
 31
0.0
  0
LINE
  5
653
  8
TOPSOLDER
 10
0.0122835
 20
0.019685
 30
0.0
 11
0.0122835
 21
-0.019685
 31
0.0
  0
LINE
  5
654
  8
TOPSOLDER
 10
0.0122835
 20
-0.019685
 30
0.0
 11
0.0477165
 21
-0.019685
 31
0.0
  0
LINE
  5
655
  8
TOPSOLDER
 10
0.0477165
 20
-0.019685
 30
0.0
 11
0.0477165
 21
0.019685
 31
0.0
  0
LINE
  5
656
  8
TOPSOLDER
 10
0.0477165
 20
0.019685
 30
0.0
 11
0.0122835
 21
0.019685
 31
0.0
  0
ENDBLK
  5
64E
  8
0
  0
BLOCK
  8
0
  2
C0603_113
 70
     0
 10
0.0
 20
0.0
 30
0.0
  3
C0603_113
  1

  0
LINE
  5
65B
  8
TOPSOLDER
 10
-0.0477165
 20
0.019685
 30
0.0
 11
-0.0477165
 21
-0.019685
 31
0.0
  0
LINE
  5
65C
  8
TOPSOLDER
 10
-0.0477165
 20
-0.019685
 30
0.0
 11
-0.0122835
 21
-0.019685
 31
0.0
  0
LINE
  5
65D
  8
TOPSOLDER
 10
-0.0122835
 20
-0.019685
 30
0.0
 11
-0.0122835
 21
0.019685
 31
0.0
  0
LINE
  5
65E
  8
TOPSOLDER
 10
-0.0122835
 20
0.019685
 30
0.0
 11
-0.0477165
 21
0.019685
 31
0.0
  0
LINE
  5
65F
  8
TOPSOLDER
 10
0.0122835
 20
0.019685
 30
0.0
 11
0.0122835
 21
-0.019685
 31
0.0
  0
LINE
  5
660
  8
TOPSOLDER
 10
0.0122835
 20
-0.019685
 30
0.0
 11
0.0477165
 21
-0.019685
 31
0.0
  0
LINE
  5
661
  8
TOPSOLDER
 10
0.0477165
 20
-0.019685
 30
0.0
 11
0.0477165
 21
0.019685
 31
0.0
  0
LINE
  5
662
  8
TOPSOLDER
 10
0.0477165
 20
0.019685
 30
0.0
 11
0.0122835
 21
0.019685
 31
0.0
  0
ENDBLK
  5
65A
  8
0
  0
BLOCK
  8
0
  2
C0603_114
 70
     0
 10
0.0
 20
0.0
 30
0.0
  3
C0603_114
  1

  0
LINE
  5
667
  8
TOPSOLDER
 10
-0.0477165
 20
0.019685
 30
0.0
 11
-0.0477165
 21
-0.019685
 31
0.0
  0
LINE
  5
668
  8
TOPSOLDER
 10
-0.0477165
 20
-0.019685
 30
0.0
 11
-0.0122835
 21
-0.019685
 31
0.0
  0
LINE
  5
669
  8
TOPSOLDER
 10
-0.0122835
 20
-0.019685
 30
0.0
 11
-0.0122835
 21
0.019685
 31
0.0
  0
LINE
  5
66A
  8
TOPSOLDER
 10
-0.0122835
 20
0.019685
 30
0.0
 11
-0.0477165
 21
0.019685
 31
0.0
  0
LINE
  5
66B
  8
TOPSOLDER
 10
0.0122835
 20
0.019685
 30
0.0
 11
0.0122835
 21
-0.019685
 31
0.0
  0
LINE
  5
66C
  8
TOPSOLDER
 10
0.0122835
 20
-0.019685
 30
0.0
 11
0.0477165
 21
-0.019685
 31
0.0
  0
LINE
  5
66D
  8
TOPSOLDER
 10
0.0477165
 20
-0.019685
 30
0.0
 11
0.0477165
 21
0.019685
 31
0.0
  0
LINE
  5
66E
  8
TOPSOLDER
 10
0.0477165
 20
0.019685
 30
0.0
 11
0.0122835
 21
0.019685
 31
0.0
  0
ENDBLK
  5
666
  8
0
  0
BLOCK
  8
0
  2
TAJB_115
 70
     0
 10
0.0
 20
0.0
 30
0.0
  3
TAJB_115
  1

  0
LINE
  5
673
  8
TOPSOLDER
 10
-0.0452756
 20
0.0360315
 30
0.0
 11
0.0452756
 21
0.0360315
 31
0.0
  0
LINE
  5
674
  8
TOPSOLDER
 10
0.0452756
 20
0.0360315
 30
0.0
 11
0.0452756
 21
0.1039685
 31
0.0
  0
LINE
  5
675
  8
TOPSOLDER
 10
0.0452756
 20
0.1039685
 30
0.0
 11
-0.0452756
 21
0.1039685
 31
0.0
  0
LINE
  5
676
  8
TOPSOLDER
 10
-0.0452756
 20
0.1039685
 30
0.0
 11
-0.0452756
 21
0.0360315
 31
0.0
  0
LINE
  5
677
  8
TOPSOLDER
 10
-0.0452755
 20
-0.1039685
 30
0.0
 11
0.0452755
 21
-0.1039685
 31
0.0
  0
LINE
  5
678
  8
TOPSOLDER
 10
0.0452755
 20
-0.1039685
 30
0.0
 11
0.0452755
 21
-0.0360315
 31
0.0
  0
LINE
  5
679
  8
TOPSOLDER
 10
0.0452755
 20
-0.0360315
 30
0.0
 11
-0.0452755
 21
-0.0360315
 31
0.0
  0
LINE
  5
67A
  8
TOPSOLDER
 10
-0.0452755
 20
-0.0360315
 30
0.0
 11
-0.0452755
 21
-0.1039685
 31
0.0
  0
ENDBLK
  5
672
  8
0
  0
BLOCK
  8
0
  2
C0603_116
 70
     0
 10
0.0
 20
0.0
 30
0.0
  3
C0603_116
  1

  0
LINE
  5
67F
  8
TOPSOLDER
 10
0.0477165
 20
-0.019685
 30
0.0
 11
0.0477165
 21
0.019685
 31
0.0
  0
LINE
  5
680
  8
TOPSOLDER
 10
0.0477165
 20
0.019685
 30
0.0
 11
0.0122835
 21
0.019685
 31
0.0
  0
LINE
  5
681
  8
TOPSOLDER
 10
0.0122835
 20
0.019685
 30
0.0
 11
0.0122835
 21
-0.019685
 31
0.0
  0
LINE
  5
682
  8
TOPSOLDER
 10
0.0122835
 20
-0.019685
 30
0.0
 11
0.0477165
 21
-0.019685
 31
0.0
  0
LINE
  5
683
  8
TOPSOLDER
 10
-0.0122835
 20
-0.019685
 30
0.0
 11
-0.0122835
 21
0.019685
 31
0.0
  0
LINE
  5
684
  8
TOPSOLDER
 10
-0.0122835
 20
0.019685
 30
0.0
 11
-0.0477165
 21
0.019685
 31
0.0
  0
LINE
  5
685
  8
TOPSOLDER
 10
-0.0477165
 20
0.019685
 30
0.0
 11
-0.0477165
 21
-0.019685
 31
0.0
  0
LINE
  5
686
  8
TOPSOLDER
 10
-0.0477165
 20
-0.019685
 30
0.0
 11
-0.0122835
 21
-0.019685
 31
0.0
  0
ENDBLK
  5
67E
  8
0
  0
BLOCK
  8
0
  2
C0603_117
 70
     0
 10
0.0
 20
0.0
 30
0.0
  3
C0603_117
  1

  0
LINE
  5
68B
  8
TOPSOLDER
 10
-0.0477165
 20
0.019685
 30
0.0
 11
-0.0477165
 21
-0.019685
 31
0.0
  0
LINE
  5
68C
  8
TOPSOLDER
 10
-0.0477165
 20
-0.019685
 30
0.0
 11
-0.0122835
 21
-0.019685
 31
0.0
  0
LINE
  5
68D
  8
TOPSOLDER
 10
-0.0122835
 20
-0.019685
 30
0.0
 11
-0.0122835
 21
0.019685
 31
0.0
  0
LINE
  5
68E
  8
TOPSOLDER
 10
-0.0122835
 20
0.019685
 30
0.0
 11
-0.0477165
 21
0.019685
 31
0.0
  0
LINE
  5
68F
  8
TOPSOLDER
 10
0.0122835
 20
0.019685
 30
0.0
 11
0.0122835
 21
-0.019685
 31
0.0
  0
LINE
  5
690
  8
TOPSOLDER
 10
0.0122835
 20
-0.019685
 30
0.0
 11
0.0477165
 21
-0.019685
 31
0.0
  0
LINE
  5
691
  8
TOPSOLDER
 10
0.0477165
 20
-0.019685
 30
0.0
 11
0.0477165
 21
0.019685
 31
0.0
  0
LINE
  5
692
  8
TOPSOLDER
 10
0.0477165
 20
0.019685
 30
0.0
 11
0.0122835
 21
0.019685
 31
0.0
  0
ENDBLK
  5
68A
  8
0
  0
BLOCK
  8
0
  2
TAJA_118
 70
     0
 10
0.0
 20
0.0
 30
0.0
  3
TAJA_118
  1

  0
LINE
  5
697
  8
TOPSOLDER
 10
0.0255905
 20
-0.0315355
 30
0.0
 11
-0.0255905
 21
-0.0315355
 31
0.0
  0
LINE
  5
698
  8
TOPSOLDER
 10
-0.0255905
 20
-0.0315355
 30
0.0
 11
-0.0255905
 21
-0.0984645
 31
0.0
  0
LINE
  5
699
  8
TOPSOLDER
 10
-0.0255905
 20
-0.0984645
 30
0.0
 11
0.0255905
 21
-0.0984645
 31
0.0
  0
LINE
  5
69A
  8
TOPSOLDER
 10
0.0255905
 20
-0.0984645
 30
0.0
 11
0.0255905
 21
-0.0315355
 31
0.0
  0
LINE
  5
69B
  8
TOPSOLDER
 10
0.0255905
 20
0.0984645
 30
0.0
 11
-0.0255905
 21
0.0984645
 31
0.0
  0
LINE
  5
69C
  8
TOPSOLDER
 10
-0.0255905
 20
0.0984645
 30
0.0
 11
-0.0255905
 21
0.0315355
 31
0.0
  0
LINE
  5
69D
  8
TOPSOLDER
 10
-0.0255905
 20
0.0315355
 30
0.0
 11
0.0255905
 21
0.0315355
 31
0.0
  0
LINE
  5
69E
  8
TOPSOLDER
 10
0.0255905
 20
0.0315355
 30
0.0
 11
0.0255905
 21
0.0984645
 31
0.0
  0
ENDBLK
  5
696
  8
0
  0
BLOCK
  8
0
  2
TAJA_119
 70
     0
 10
0.0
 20
0.0
 30
0.0
  3
TAJA_119
  1

  0
LINE
  5
6A3
  8
TOPSOLDER
 10
-0.0255905
 20
0.0315355
 30
0.0
 11
0.0255905
 21
0.0315355
 31
0.0
  0
LINE
  5
6A4
  8
TOPSOLDER
 10
0.0255905
 20
0.0315355
 30
0.0
 11
0.0255905
 21
0.0984645
 31
0.0
  0
LINE
  5
6A5
  8
TOPSOLDER
 10
0.0255905
 20
0.0984645
 30
0.0
 11
-0.0255905
 21
0.0984645
 31
0.0
  0
LINE
  5
6A6
  8
TOPSOLDER
 10
-0.0255905
 20
0.0984645
 30
0.0
 11
-0.0255905
 21
0.0315355
 31
0.0
  0
LINE
  5
6A7
  8
TOPSOLDER
 10
-0.0255905
 20
-0.0984645
 30
0.0
 11
0.0255905
 21
-0.0984645
 31
0.0
  0
LINE
  5
6A8
  8
TOPSOLDER
 10
0.0255905
 20
-0.0984645
 30
0.0
 11
0.0255905
 21
-0.0315355
 31
0.0
  0
LINE
  5
6A9
  8
TOPSOLDER
 10
0.0255905
 20
-0.0315355
 30
0.0
 11
-0.0255905
 21
-0.0315355
 31
0.0
  0
LINE
  5
6AA
  8
TOPSOLDER
 10
-0.0255905
 20
-0.0315355
 30
0.0
 11
-0.0255905
 21
-0.0984645
 31
0.0
  0
ENDBLK
  5
6A2
  8
0
  0
BLOCK
  8
0
  2
TAJA_120
 70
     0
 10
0.0
 20
0.0
 30
0.0
  3
TAJA_120
  1

  0
LINE
  5
6AF
  8
TOPSOLDER
 10
-0.0255905
 20
0.0315355
 30
0.0
 11
0.0255905
 21
0.0315355
 31
0.0
  0
LINE
  5
6B0
  8
TOPSOLDER
 10
0.0255905
 20
0.0315355
 30
0.0
 11
0.0255905
 21
0.0984645
 31
0.0
  0
LINE
  5
6B1
  8
TOPSOLDER
 10
0.0255905
 20
0.0984645
 30
0.0
 11
-0.0255905
 21
0.0984645
 31
0.0
  0
LINE
  5
6B2
  8
TOPSOLDER
 10
-0.0255905
 20
0.0984645
 30
0.0
 11
-0.0255905
 21
0.0315355
 31
0.0
  0
LINE
  5
6B3
  8
TOPSOLDER
 10
-0.0255905
 20
-0.0984645
 30
0.0
 11
0.0255905
 21
-0.0984645
 31
0.0
  0
LINE
  5
6B4
  8
TOPSOLDER
 10
0.0255905
 20
-0.0984645
 30
0.0
 11
0.0255905
 21
-0.0315355
 31
0.0
  0
LINE
  5
6B5
  8
TOPSOLDER
 10
0.0255905
 20
-0.0315355
 30
0.0
 11
-0.0255905
 21
-0.0315355
 31
0.0
  0
LINE
  5
6B6
  8
TOPSOLDER
 10
-0.0255905
 20
-0.0315355
 30
0.0
 11
-0.0255905
 21
-0.0984645
 31
0.0
  0
ENDBLK
  5
6AE
  8
0
  0
BLOCK
  8
0
  2
C0603_121
 70
     0
 10
0.0
 20
0.0
 30
0.0
  3
C0603_121
  1

  0
LINE
  5
6BB
  8
TOPSOLDER
 10
0.0477165
 20
-0.019685
 30
0.0
 11
0.0477165
 21
0.019685
 31
0.0
  0
LINE
  5
6BC
  8
TOPSOLDER
 10
0.0477165
 20
0.019685
 30
0.0
 11
0.0122835
 21
0.019685
 31
0.0
  0
LINE
  5
6BD
  8
TOPSOLDER
 10
0.0122835
 20
0.019685
 30
0.0
 11
0.0122835
 21
-0.019685
 31
0.0
  0
LINE
  5
6BE
  8
TOPSOLDER
 10
0.0122835
 20
-0.019685
 30
0.0
 11
0.0477165
 21
-0.019685
 31
0.0
  0
LINE
  5
6BF
  8
TOPSOLDER
 10
-0.0122835
 20
-0.019685
 30
0.0
 11
-0.0122835
 21
0.019685
 31
0.0
  0
LINE
  5
6C0
  8
TOPSOLDER
 10
-0.0122835
 20
0.019685
 30
0.0
 11
-0.0477165
 21
0.019685
 31
0.0
  0
LINE
  5
6C1
  8
TOPSOLDER
 10
-0.0477165
 20
0.019685
 30
0.0
 11
-0.0477165
 21
-0.019685
 31
0.0
  0
LINE
  5
6C2
  8
TOPSOLDER
 10
-0.0477165
 20
-0.019685
 30
0.0
 11
-0.0122835
 21
-0.019685
 31
0.0
  0
ENDBLK
  5
6BA
  8
0
  0
BLOCK
  8
0
  2
C0603_B_122
 70
     0
 10
0.0
 20
0.0
 30
0.0
  3
C0603_B_122
  1

  0
ENDBLK
  5
6C6
  8
0
  0
BLOCK
  8
0
  2
C0603_123
 70
     0
 10
0.0
 20
0.0
 30
0.0
  3
C0603_123
  1

  0
LINE
  5
6CB
  8
TOPSOLDER
 10
-0.0477165
 20
0.019685
 30
0.0
 11
-0.0477165
 21
-0.019685
 31
0.0
  0
LINE
  5
6CC
  8
TOPSOLDER
 10
-0.0477165
 20
-0.019685
 30
0.0
 11
-0.0122835
 21
-0.019685
 31
0.0
  0
LINE
  5
6CD
  8
TOPSOLDER
 10
-0.0122835
 20
-0.019685
 30
0.0
 11
-0.0122835
 21
0.019685
 31
0.0
  0
LINE
  5
6CE
  8
TOPSOLDER
 10
-0.0122835
 20
0.019685
 30
0.0
 11
-0.0477165
 21
0.019685
 31
0.0
  0
LINE
  5
6CF
  8
TOPSOLDER
 10
0.0122835
 20
0.019685
 30
0.0
 11
0.0122835
 21
-0.019685
 31
0.0
  0
LINE
  5
6D0
  8
TOPSOLDER
 10
0.0122835
 20
-0.019685
 30
0.0
 11
0.0477165
 21
-0.019685
 31
0.0
  0
LINE
  5
6D1
  8
TOPSOLDER
 10
0.0477165
 20
-0.019685
 30
0.0
 11
0.0477165
 21
0.019685
 31
0.0
  0
LINE
  5
6D2
  8
TOPSOLDER
 10
0.0477165
 20
0.019685
 30
0.0
 11
0.0122835
 21
0.019685
 31
0.0
  0
ENDBLK
  5
6CA
  8
0
  0
BLOCK
  8
0
  2
TAJA_124
 70
     0
 10
0.0
 20
0.0
 30
0.0
  3
TAJA_124
  1

  0
LINE
  5
6D7
  8
TOPSOLDER
 10
-0.0255905
 20
0.0315355
 30
0.0
 11
0.0255905
 21
0.0315355
 31
0.0
  0
LINE
  5
6D8
  8
TOPSOLDER
 10
0.0255905
 20
0.0315355
 30
0.0
 11
0.0255905
 21
0.0984645
 31
0.0
  0
LINE
  5
6D9
  8
TOPSOLDER
 10
0.0255905
 20
0.0984645
 30
0.0
 11
-0.0255905
 21
0.0984645
 31
0.0
  0
LINE
  5
6DA
  8
TOPSOLDER
 10
-0.0255905
 20
0.0984645
 30
0.0
 11
-0.0255905
 21
0.0315355
 31
0.0
  0
LINE
  5
6DB
  8
TOPSOLDER
 10
-0.0255905
 20
-0.0984645
 30
0.0
 11
0.0255905
 21
-0.0984645
 31
0.0
  0
LINE
  5
6DC
  8
TOPSOLDER
 10
0.0255905
 20
-0.0984645
 30
0.0
 11
0.0255905
 21
-0.0315355
 31
0.0
  0
LINE
  5
6DD
  8
TOPSOLDER
 10
0.0255905
 20
-0.0315355
 30
0.0
 11
-0.0255905
 21
-0.0315355
 31
0.0
  0
LINE
  5
6DE
  8
TOPSOLDER
 10
-0.0255905
 20
-0.0315355
 30
0.0
 11
-0.0255905
 21
-0.0984645
 31
0.0
  0
ENDBLK
  5
6D6
  8
0
  0
BLOCK
  8
0
  2
C0603_125
 70
     0
 10
0.0
 20
0.0
 30
0.0
  3
C0603_125
  1

  0
LINE
  5
6E3
  8
TOPSOLDER
 10
-0.0477165
 20
0.019685
 30
0.0
 11
-0.0477165
 21
-0.019685
 31
0.0
  0
LINE
  5
6E4
  8
TOPSOLDER
 10
-0.0477165
 20
-0.019685
 30
0.0
 11
-0.0122835
 21
-0.019685
 31
0.0
  0
LINE
  5
6E5
  8
TOPSOLDER
 10
-0.0122835
 20
-0.019685
 30
0.0
 11
-0.0122835
 21
0.019685
 31
0.0
  0
LINE
  5
6E6
  8
TOPSOLDER
 10
-0.0122835
 20
0.019685
 30
0.0
 11
-0.0477165
 21
0.019685
 31
0.0
  0
LINE
  5
6E7
  8
TOPSOLDER
 10
0.0122835
 20
0.019685
 30
0.0
 11
0.0122835
 21
-0.019685
 31
0.0
  0
LINE
  5
6E8
  8
TOPSOLDER
 10
0.0122835
 20
-0.019685
 30
0.0
 11
0.0477165
 21
-0.019685
 31
0.0
  0
LINE
  5
6E9
  8
TOPSOLDER
 10
0.0477165
 20
-0.019685
 30
0.0
 11
0.0477165
 21
0.019685
 31
0.0
  0
LINE
  5
6EA
  8
TOPSOLDER
 10
0.0477165
 20
0.019685
 30
0.0
 11
0.0122835
 21
0.019685
 31
0.0
  0
ENDBLK
  5
6E2
  8
0
  0
BLOCK
  8
0
  2
C0603_126
 70
     0
 10
0.0
 20
0.0
 30
0.0
  3
C0603_126
  1

  0
LINE
  5
6EF
  8
TOPSOLDER
 10
-0.0477165
 20
0.019685
 30
0.0
 11
-0.0477165
 21
-0.019685
 31
0.0
  0
LINE
  5
6F0
  8
TOPSOLDER
 10
-0.0477165
 20
-0.019685
 30
0.0
 11
-0.0122835
 21
-0.019685
 31
0.0
  0
LINE
  5
6F1
  8
TOPSOLDER
 10
-0.0122835
 20
-0.019685
 30
0.0
 11
-0.0122835
 21
0.019685
 31
0.0
  0
LINE
  5
6F2
  8
TOPSOLDER
 10
-0.0122835
 20
0.019685
 30
0.0
 11
-0.0477165
 21
0.019685
 31
0.0
  0
LINE
  5
6F3
  8
TOPSOLDER
 10
0.0122835
 20
0.019685
 30
0.0
 11
0.0122835
 21
-0.019685
 31
0.0
  0
LINE
  5
6F4
  8
TOPSOLDER
 10
0.0122835
 20
-0.019685
 30
0.0
 11
0.0477165
 21
-0.019685
 31
0.0
  0
LINE
  5
6F5
  8
TOPSOLDER
 10
0.0477165
 20
-0.019685
 30
0.0
 11
0.0477165
 21
0.019685
 31
0.0
  0
LINE
  5
6F6
  8
TOPSOLDER
 10
0.0477165
 20
0.019685
 30
0.0
 11
0.0122835
 21
0.019685
 31
0.0
  0
ENDBLK
  5
6EE
  8
0
  0
BLOCK
  8
0
  2
C0603_B_127
 70
     0
 10
0.0
 20
0.0
 30
0.0
  3
C0603_B_127
  1

  0
ENDBLK
  5
6FA
  8
0
  0
BLOCK
  8
0
  2
C0603_128
 70
     0
 10
0.0
 20
0.0
 30
0.0
  3
C0603_128
  1

  0
LINE
  5
6FF
  8
TOPSOLDER
 10
-0.0477165
 20
0.019685
 30
0.0
 11
-0.0477165
 21
-0.019685
 31
0.0
  0
LINE
  5
700
  8
TOPSOLDER
 10
-0.0477165
 20
-0.019685
 30
0.0
 11
-0.0122835
 21
-0.019685
 31
0.0
  0
LINE
  5
701
  8
TOPSOLDER
 10
-0.0122835
 20
-0.019685
 30
0.0
 11
-0.0122835
 21
0.019685
 31
0.0
  0
LINE
  5
702
  8
TOPSOLDER
 10
-0.0122835
 20
0.019685
 30
0.0
 11
-0.0477165
 21
0.019685
 31
0.0
  0
LINE
  5
703
  8
TOPSOLDER
 10
0.0122835
 20
0.019685
 30
0.0
 11
0.0122835
 21
-0.019685
 31
0.0
  0
LINE
  5
704
  8
TOPSOLDER
 10
0.0122835
 20
-0.019685
 30
0.0
 11
0.0477165
 21
-0.019685
 31
0.0
  0
LINE
  5
705
  8
TOPSOLDER
 10
0.0477165
 20
-0.019685
 30
0.0
 11
0.0477165
 21
0.019685
 31
0.0
  0
LINE
  5
706
  8
TOPSOLDER
 10
0.0477165
 20
0.019685
 30
0.0
 11
0.0122835
 21
0.019685
 31
0.0
  0
ENDBLK
  5
6FE
  8
0
  0
BLOCK
  8
0
  2
C0603_B_129
 70
     0
 10
0.0
 20
0.0
 30
0.0
  3
C0603_B_129
  1

  0
ENDBLK
  5
70A
  8
0
  0
BLOCK
  8
0
  2
C0603_B_130
 70
     0
 10
0.0
 20
0.0
 30
0.0
  3
C0603_B_130
  1

  0
ENDBLK
  5
70E
  8
0
  0
BLOCK
  8
0
  2
C0603_B_131
 70
     0
 10
0.0
 20
0.0
 30
0.0
  3
C0603_B_131
  1

  0
ENDBLK
  5
712
  8
0
  0
BLOCK
  8
0
  2
C0603_B_132
 70
     0
 10
0.0
 20
0.0
 30
0.0
  3
C0603_B_132
  1

  0
ENDBLK
  5
716
  8
0
  0
BLOCK
  8
0
  2
C0603_B_133
 70
     0
 10
0.0
 20
0.0
 30
0.0
  3
C0603_B_133
  1

  0
ENDBLK
  5
71A
  8
0
  0
BLOCK
  8
0
  2
C0603_134
 70
     0
 10
0.0
 20
0.0
 30
0.0
  3
C0603_134
  1

  0
LINE
  5
71F
  8
TOPSOLDER
 10
-0.0477165
 20
0.019685
 30
0.0
 11
-0.0477165
 21
-0.019685
 31
0.0
  0
LINE
  5
720
  8
TOPSOLDER
 10
-0.0477165
 20
-0.019685
 30
0.0
 11
-0.0122835
 21
-0.019685
 31
0.0
  0
LINE
  5
721
  8
TOPSOLDER
 10
-0.0122835
 20
-0.019685
 30
0.0
 11
-0.0122835
 21
0.019685
 31
0.0
  0
LINE
  5
722
  8
TOPSOLDER
 10
-0.0122835
 20
0.019685
 30
0.0
 11
-0.0477165
 21
0.019685
 31
0.0
  0
LINE
  5
723
  8
TOPSOLDER
 10
0.0122835
 20
0.019685
 30
0.0
 11
0.0122835
 21
-0.019685
 31
0.0
  0
LINE
  5
724
  8
TOPSOLDER
 10
0.0122835
 20
-0.019685
 30
0.0
 11
0.0477165
 21
-0.019685
 31
0.0
  0
LINE
  5
725
  8
TOPSOLDER
 10
0.0477165
 20
-0.019685
 30
0.0
 11
0.0477165
 21
0.019685
 31
0.0
  0
LINE
  5
726
  8
TOPSOLDER
 10
0.0477165
 20
0.019685
 30
0.0
 11
0.0122835
 21
0.019685
 31
0.0
  0
ENDBLK
  5
71E
  8
0
  0
BLOCK
  8
0
  2
C0603_B_135
 70
     0
 10
0.0
 20
0.0
 30
0.0
  3
C0603_B_135
  1

  0
ENDBLK
  5
72A
  8
0
  0
BLOCK
  8
0
  2
C0603_B_136
 70
     0
 10
0.0
 20
0.0
 30
0.0
  3
C0603_B_136
  1

  0
ENDBLK
  5
72E
  8
0
  0
BLOCK
  8
0
  2
TAJA_B_137
 70
     0
 10
0.0
 20
0.0
 30
0.0
  3
TAJA_B_137
  1

  0
ENDBLK
  5
732
  8
0
  0
BLOCK
  8
0
  2
TAJA_B_138
 70
     0
 10
0.0
 20
0.0
 30
0.0
  3
TAJA_B_138
  1

  0
ENDBLK
  5
736
  8
0
  0
BLOCK
  8
0
  2
C0603_B_139
 70
     0
 10
0.0
 20
0.0
 30
0.0
  3
C0603_B_139
  1

  0
ENDBLK
  5
73A
  8
0
  0
BLOCK
  8
0
  2
TAJA_B_140
 70
     0
 10
0.0
 20
0.0
 30
0.0
  3
TAJA_B_140
  1

  0
ENDBLK
  5
73E
  8
0
  0
BLOCK
  8
0
  2
C0603_B_141
 70
     0
 10
0.0
 20
0.0
 30
0.0
  3
C0603_B_141
  1

  0
ENDBLK
  5
742
  8
0
  0
BLOCK
  8
0
  2
C0603_B_142
 70
     0
 10
0.0
 20
0.0
 30
0.0
  3
C0603_B_142
  1

  0
ENDBLK
  5
746
  8
0
  0
BLOCK
  8
0
  2
C0603_143
 70
     0
 10
0.0
 20
0.0
 30
0.0
  3
C0603_143
  1

  0
LINE
  5
74B
  8
TOPSOLDER
 10
0.0477165
 20
-0.019685
 30
0.0
 11
0.0477165
 21
0.019685
 31
0.0
  0
LINE
  5
74C
  8
TOPSOLDER
 10
0.0477165
 20
0.019685
 30
0.0
 11
0.0122835
 21
0.019685
 31
0.0
  0
LINE
  5
74D
  8
TOPSOLDER
 10
0.0122835
 20
0.019685
 30
0.0
 11
0.0122835
 21
-0.019685
 31
0.0
  0
LINE
  5
74E
  8
TOPSOLDER
 10
0.0122835
 20
-0.019685
 30
0.0
 11
0.0477165
 21
-0.019685
 31
0.0
  0
LINE
  5
74F
  8
TOPSOLDER
 10
-0.0122835
 20
-0.019685
 30
0.0
 11
-0.0122835
 21
0.019685
 31
0.0
  0
LINE
  5
750
  8
TOPSOLDER
 10
-0.0122835
 20
0.019685
 30
0.0
 11
-0.0477165
 21
0.019685
 31
0.0
  0
LINE
  5
751
  8
TOPSOLDER
 10
-0.0477165
 20
0.019685
 30
0.0
 11
-0.0477165
 21
-0.019685
 31
0.0
  0
LINE
  5
752
  8
TOPSOLDER
 10
-0.0477165
 20
-0.019685
 30
0.0
 11
-0.0122835
 21
-0.019685
 31
0.0
  0
ENDBLK
  5
74A
  8
0
  0
BLOCK
  8
0
  2
C0603_144
 70
     0
 10
0.0
 20
0.0
 30
0.0
  3
C0603_144
  1

  0
LINE
  5
757
  8
TOPSOLDER
 10
0.0477165
 20
-0.019685
 30
0.0
 11
0.0477165
 21
0.019685
 31
0.0
  0
LINE
  5
758
  8
TOPSOLDER
 10
0.0477165
 20
0.019685
 30
0.0
 11
0.0122835
 21
0.019685
 31
0.0
  0
LINE
  5
759
  8
TOPSOLDER
 10
0.0122835
 20
0.019685
 30
0.0
 11
0.0122835
 21
-0.019685
 31
0.0
  0
LINE
  5
75A
  8
TOPSOLDER
 10
0.0122835
 20
-0.019685
 30
0.0
 11
0.0477165
 21
-0.019685
 31
0.0
  0
LINE
  5
75B
  8
TOPSOLDER
 10
-0.0122835
 20
-0.019685
 30
0.0
 11
-0.0122835
 21
0.019685
 31
0.0
  0
LINE
  5
75C
  8
TOPSOLDER
 10
-0.0122835
 20
0.019685
 30
0.0
 11
-0.0477165
 21
0.019685
 31
0.0
  0
LINE
  5
75D
  8
TOPSOLDER
 10
-0.0477165
 20
0.019685
 30
0.0
 11
-0.0477165
 21
-0.019685
 31
0.0
  0
LINE
  5
75E
  8
TOPSOLDER
 10
-0.0477165
 20
-0.019685
 30
0.0
 11
-0.0122835
 21
-0.019685
 31
0.0
  0
ENDBLK
  5
756
  8
0
  0
BLOCK
  8
0
  2
TAJA_145
 70
     0
 10
0.0
 20
0.0
 30
0.0
  3
TAJA_145
  1

  0
LINE
  5
763
  8
TOPSOLDER
 10
0.0255905
 20
-0.0315355
 30
0.0
 11
-0.0255905
 21
-0.0315355
 31
0.0
  0
LINE
  5
764
  8
TOPSOLDER
 10
-0.0255905
 20
-0.0315355
 30
0.0
 11
-0.0255905
 21
-0.0984645
 31
0.0
  0
LINE
  5
765
  8
TOPSOLDER
 10
-0.0255905
 20
-0.0984645
 30
0.0
 11
0.0255905
 21
-0.0984645
 31
0.0
  0
LINE
  5
766
  8
TOPSOLDER
 10
0.0255905
 20
-0.0984645
 30
0.0
 11
0.0255905
 21
-0.0315355
 31
0.0
  0
LINE
  5
767
  8
TOPSOLDER
 10
0.0255905
 20
0.0984645
 30
0.0
 11
-0.0255905
 21
0.0984645
 31
0.0
  0
LINE
  5
768
  8
TOPSOLDER
 10
-0.0255905
 20
0.0984645
 30
0.0
 11
-0.0255905
 21
0.0315355
 31
0.0
  0
LINE
  5
769
  8
TOPSOLDER
 10
-0.0255905
 20
0.0315355
 30
0.0
 11
0.0255905
 21
0.0315355
 31
0.0
  0
LINE
  5
76A
  8
TOPSOLDER
 10
0.0255905
 20
0.0315355
 30
0.0
 11
0.0255905
 21
0.0984645
 31
0.0
  0
ENDBLK
  5
762
  8
0
  0
BLOCK
  8
0
  2
R0603_B_146
 70
     0
 10
0.0
 20
0.0
 30
0.0
  3
R0603_B_146
  1

  0
ENDBLK
  5
76E
  8
0
  0
BLOCK
  8
0
  2
C0603_147
 70
     0
 10
0.0
 20
0.0
 30
0.0
  3
C0603_147
  1

  0
LINE
  5
773
  8
TOPSOLDER
 10
-0.0477165
 20
0.019685
 30
0.0
 11
-0.0477165
 21
-0.019685
 31
0.0
  0
LINE
  5
774
  8
TOPSOLDER
 10
-0.0477165
 20
-0.019685
 30
0.0
 11
-0.0122835
 21
-0.019685
 31
0.0
  0
LINE
  5
775
  8
TOPSOLDER
 10
-0.0122835
 20
-0.019685
 30
0.0
 11
-0.0122835
 21
0.019685
 31
0.0
  0
LINE
  5
776
  8
TOPSOLDER
 10
-0.0122835
 20
0.019685
 30
0.0
 11
-0.0477165
 21
0.019685
 31
0.0
  0
LINE
  5
777
  8
TOPSOLDER
 10
0.0122835
 20
0.019685
 30
0.0
 11
0.0122835
 21
-0.019685
 31
0.0
  0
LINE
  5
778
  8
TOPSOLDER
 10
0.0122835
 20
-0.019685
 30
0.0
 11
0.0477165
 21
-0.019685
 31
0.0
  0
LINE
  5
779
  8
TOPSOLDER
 10
0.0477165
 20
-0.019685
 30
0.0
 11
0.0477165
 21
0.019685
 31
0.0
  0
LINE
  5
77A
  8
TOPSOLDER
 10
0.0477165
 20
0.019685
 30
0.0
 11
0.0122835
 21
0.019685
 31
0.0
  0
ENDBLK
  5
772
  8
0
  0
BLOCK
  8
0
  2
C0603_148
 70
     0
 10
0.0
 20
0.0
 30
0.0
  3
C0603_148
  1

  0
LINE
  5
77F
  8
TOPSOLDER
 10
0.0477165
 20
-0.019685
 30
0.0
 11
0.0477165
 21
0.019685
 31
0.0
  0
LINE
  5
780
  8
TOPSOLDER
 10
0.0477165
 20
0.019685
 30
0.0
 11
0.0122835
 21
0.019685
 31
0.0
  0
LINE
  5
781
  8
TOPSOLDER
 10
0.0122835
 20
0.019685
 30
0.0
 11
0.0122835
 21
-0.019685
 31
0.0
  0
LINE
  5
782
  8
TOPSOLDER
 10
0.0122835
 20
-0.019685
 30
0.0
 11
0.0477165
 21
-0.019685
 31
0.0
  0
LINE
  5
783
  8
TOPSOLDER
 10
-0.0122835
 20
-0.019685
 30
0.0
 11
-0.0122835
 21
0.019685
 31
0.0
  0
LINE
  5
784
  8
TOPSOLDER
 10
-0.0122835
 20
0.019685
 30
0.0
 11
-0.0477165
 21
0.019685
 31
0.0
  0
LINE
  5
785
  8
TOPSOLDER
 10
-0.0477165
 20
0.019685
 30
0.0
 11
-0.0477165
 21
-0.019685
 31
0.0
  0
LINE
  5
786
  8
TOPSOLDER
 10
-0.0477165
 20
-0.019685
 30
0.0
 11
-0.0122835
 21
-0.019685
 31
0.0
  0
ENDBLK
  5
77E
  8
0
  0
BLOCK
  8
0
  2
HIROSE_FH16_80S_0_3_149
 70
     0
 10
0.0
 20
0.0
 30
0.0
  3
HIROSE_FH16_80S_0_3_149
  1

  0
LINE
  5
78B
  8
TOPSOLDER
 10
-0.4586614
 20
-0.1466536
 30
0.0
 11
-0.4586614
 21
-0.0757876
 31
0.0
  0
LINE
  5
78C
  8
TOPSOLDER
 10
-0.4586614
 20
-0.0757876
 30
0.0
 11
-0.4744094
 21
-0.0757876
 31
0.0
  0
LINE
  5
78D
  8
TOPSOLDER
 10
-0.4744094
 20
-0.0757876
 30
0.0
 11
-0.4744094
 21
-0.1466536
 31
0.0
  0
LINE
  5
78E
  8
TOPSOLDER
 10
-0.4744094
 20
-0.1466536
 30
0.0
 11
-0.4586614
 21
-0.1466536
 31
0.0
  0
LINE
  5
78F
  8
TOPSOLDER
 10
-0.4625984
 20
0.1466534
 30
0.0
 11
-0.4625984
 21
0.0757874
 31
0.0
  0
LINE
  5
790
  8
TOPSOLDER
 10
-0.4625984
 20
0.0757874
 30
0.0
 11
-0.4468504
 21
0.0757874
 31
0.0
  0
LINE
  5
791
  8
TOPSOLDER
 10
-0.4468504
 20
0.0757874
 30
0.0
 11
-0.4468504
 21
0.1466534
 31
0.0
  0
LINE
  5
792
  8
TOPSOLDER
 10
-0.4468504
 20
0.1466534
 30
0.0
 11
-0.4625984
 21
0.1466534
 31
0.0
  0
LINE
  5
793
  8
TOPSOLDER
 10
-0.4114174
 20
-0.1466536
 30
0.0
 11
-0.4114174
 21
-0.0757876
 31
0.0
  0
LINE
  5
794
  8
TOPSOLDER
 10
-0.4114174
 20
-0.0757876
 30
0.0
 11
-0.4271654
 21
-0.0757876
 31
0.0
  0
LINE
  5
795
  8
TOPSOLDER
 10
-0.4271654
 20
-0.0757876
 30
0.0
 11
-0.4271654
 21
-0.1466536
 31
0.0
  0
LINE
  5
796
  8
TOPSOLDER
 10
-0.4271654
 20
-0.1466536
 30
0.0
 11
-0.4114174
 21
-0.1466536
 31
0.0
  0
LINE
  5
797
  8
TOPSOLDER
 10
-0.4350394
 20
-0.1466536
 30
0.0
 11
-0.4350394
 21
-0.0757876
 31
0.0
  0
LINE
  5
798
  8
TOPSOLDER
 10
-0.4350394
 20
-0.0757876
 30
0.0
 11
-0.4507874
 21
-0.0757876
 31
0.0
  0
LINE
  5
799
  8
TOPSOLDER
 10
-0.4507874
 20
-0.0757876
 30
0.0
 11
-0.4507874
 21
-0.1466536
 31
0.0
  0
LINE
  5
79A
  8
TOPSOLDER
 10
-0.4507874
 20
-0.1466536
 30
0.0
 11
-0.4350394
 21
-0.1466536
 31
0.0
  0
LINE
  5
79B
  8
TOPSOLDER
 10
-0.3877953
 20
-0.1466536
 30
0.0
 11
-0.3877953
 21
-0.0757876
 31
0.0
  0
LINE
  5
79C
  8
TOPSOLDER
 10
-0.3877953
 20
-0.0757876
 30
0.0
 11
-0.4035433
 21
-0.0757876
 31
0.0
  0
LINE
  5
79D
  8
TOPSOLDER
 10
-0.4035433
 20
-0.0757876
 30
0.0
 11
-0.4035433
 21
-0.1466536
 31
0.0
  0
LINE
  5
79E
  8
TOPSOLDER
 10
-0.4035433
 20
-0.1466536
 30
0.0
 11
-0.3877953
 21
-0.1466536
 31
0.0
  0
LINE
  5
79F
  8
TOPSOLDER
 10
-0.3641733
 20
-0.1466536
 30
0.0
 11
-0.3641733
 21
-0.0757876
 31
0.0
  0
LINE
  5
7A0
  8
TOPSOLDER
 10
-0.3641733
 20
-0.0757876
 30
0.0
 11
-0.3799213
 21
-0.0757876
 31
0.0
  0
LINE
  5
7A1
  8
TOPSOLDER
 10
-0.3799213
 20
-0.0757876
 30
0.0
 11
-0.3799213
 21
-0.1466536
 31
0.0
  0
LINE
  5
7A2
  8
TOPSOLDER
 10
-0.3799213
 20
-0.1466536
 30
0.0
 11
-0.3641733
 21
-0.1466536
 31
0.0
  0
LINE
  5
7A3
  8
TOPSOLDER
 10
-0.3405512
 20
-0.1466536
 30
0.0
 11
-0.3405512
 21
-0.0757876
 31
0.0
  0
LINE
  5
7A4
  8
TOPSOLDER
 10
-0.3405512
 20
-0.0757876
 30
0.0
 11
-0.3562992
 21
-0.0757876
 31
0.0
  0
LINE
  5
7A5
  8
TOPSOLDER
 10
-0.3562992
 20
-0.0757876
 30
0.0
 11
-0.3562992
 21
-0.1466536
 31
0.0
  0
LINE
  5
7A6
  8
TOPSOLDER
 10
-0.3562992
 20
-0.1466536
 30
0.0
 11
-0.3405512
 21
-0.1466536
 31
0.0
  0
LINE
  5
7A7
  8
TOPSOLDER
 10
-0.3169292
 20
-0.1466536
 30
0.0
 11
-0.3169292
 21
-0.0757876
 31
0.0
  0
LINE
  5
7A8
  8
TOPSOLDER
 10
-0.3169292
 20
-0.0757876
 30
0.0
 11
-0.3326772
 21
-0.0757876
 31
0.0
  0
LINE
  5
7A9
  8
TOPSOLDER
 10
-0.3326772
 20
-0.0757876
 30
0.0
 11
-0.3326772
 21
-0.1466536
 31
0.0
  0
LINE
  5
7AA
  8
TOPSOLDER
 10
-0.3326772
 20
-0.1466536
 30
0.0
 11
-0.3169292
 21
-0.1466536
 31
0.0
  0
LINE
  5
7AB
  8
TOPSOLDER
 10
-0.2933071
 20
-0.1466536
 30
0.0
 11
-0.2933071
 21
-0.0757876
 31
0.0
  0
LINE
  5
7AC
  8
TOPSOLDER
 10
-0.2933071
 20
-0.0757876
 30
0.0
 11
-0.3090551
 21
-0.0757876
 31
0.0
  0
LINE
  5
7AD
  8
TOPSOLDER
 10
-0.3090551
 20
-0.0757876
 30
0.0
 11
-0.3090551
 21
-0.1466536
 31
0.0
  0
LINE
  5
7AE
  8
TOPSOLDER
 10
-0.3090551
 20
-0.1466536
 30
0.0
 11
-0.2933071
 21
-0.1466536
 31
0.0
  0
LINE
  5
7AF
  8
TOPSOLDER
 10
-0.2696851
 20
-0.1466536
 30
0.0
 11
-0.2696851
 21
-0.0757876
 31
0.0
  0
LINE
  5
7B0
  8
TOPSOLDER
 10
-0.2696851
 20
-0.0757876
 30
0.0
 11
-0.2854331
 21
-0.0757876
 31
0.0
  0
LINE
  5
7B1
  8
TOPSOLDER
 10
-0.2854331
 20
-0.0757876
 30
0.0
 11
-0.2854331
 21
-0.1466536
 31
0.0
  0
LINE
  5
7B2
  8
TOPSOLDER
 10
-0.2854331
 20
-0.1466536
 30
0.0
 11
-0.2696851
 21
-0.1466536
 31
0.0
  0
LINE
  5
7B3
  8
TOPSOLDER
 10
-0.246063
 20
-0.1466536
 30
0.0
 11
-0.246063
 21
-0.0757876
 31
0.0
  0
LINE
  5
7B4
  8
TOPSOLDER
 10
-0.246063
 20
-0.0757876
 30
0.0
 11
-0.261811
 21
-0.0757876
 31
0.0
  0
LINE
  5
7B5
  8
TOPSOLDER
 10
-0.261811
 20
-0.0757876
 30
0.0
 11
-0.261811
 21
-0.1466536
 31
0.0
  0
LINE
  5
7B6
  8
TOPSOLDER
 10
-0.261811
 20
-0.1466536
 30
0.0
 11
-0.246063
 21
-0.1466536
 31
0.0
  0
LINE
  5
7B7
  8
TOPSOLDER
 10
-0.222441
 20
-0.1466536
 30
0.0
 11
-0.222441
 21
-0.0757876
 31
0.0
  0
LINE
  5
7B8
  8
TOPSOLDER
 10
-0.222441
 20
-0.0757876
 30
0.0
 11
-0.238189
 21
-0.0757876
 31
0.0
  0
LINE
  5
7B9
  8
TOPSOLDER
 10
-0.238189
 20
-0.0757876
 30
0.0
 11
-0.238189
 21
-0.1466536
 31
0.0
  0
LINE
  5
7BA
  8
TOPSOLDER
 10
-0.238189
 20
-0.1466536
 30
0.0
 11
-0.222441
 21
-0.1466536
 31
0.0
  0
LINE
  5
7BB
  8
TOPSOLDER
 10
-0.198819
 20
-0.1466536
 30
0.0
 11
-0.198819
 21
-0.0757876
 31
0.0
  0
LINE
  5
7BC
  8
TOPSOLDER
 10
-0.198819
 20
-0.0757876
 30
0.0
 11
-0.214567
 21
-0.0757876
 31
0.0
  0
LINE
  5
7BD
  8
TOPSOLDER
 10
-0.214567
 20
-0.0757876
 30
0.0
 11
-0.214567
 21
-0.1466536
 31
0.0
  0
LINE
  5
7BE
  8
TOPSOLDER
 10
-0.214567
 20
-0.1466536
 30
0.0
 11
-0.198819
 21
-0.1466536
 31
0.0
  0
LINE
  5
7BF
  8
TOPSOLDER
 10
-0.1751969
 20
-0.1466536
 30
0.0
 11
-0.1751969
 21
-0.0757876
 31
0.0
  0
LINE
  5
7C0
  8
TOPSOLDER
 10
-0.1751969
 20
-0.0757876
 30
0.0
 11
-0.1909449
 21
-0.0757876
 31
0.0
  0
LINE
  5
7C1
  8
TOPSOLDER
 10
-0.1909449
 20
-0.0757876
 30
0.0
 11
-0.1909449
 21
-0.1466536
 31
0.0
  0
LINE
  5
7C2
  8
TOPSOLDER
 10
-0.1909449
 20
-0.1466536
 30
0.0
 11
-0.1751969
 21
-0.1466536
 31
0.0
  0
LINE
  5
7C3
  8
TOPSOLDER
 10
-0.1515749
 20
-0.1466536
 30
0.0
 11
-0.1515749
 21
-0.0757876
 31
0.0
  0
LINE
  5
7C4
  8
TOPSOLDER
 10
-0.1515749
 20
-0.0757876
 30
0.0
 11
-0.1673229
 21
-0.0757876
 31
0.0
  0
LINE
  5
7C5
  8
TOPSOLDER
 10
-0.1673229
 20
-0.0757876
 30
0.0
 11
-0.1673229
 21
-0.1466536
 31
0.0
  0
LINE
  5
7C6
  8
TOPSOLDER
 10
-0.1673229
 20
-0.1466536
 30
0.0
 11
-0.1515749
 21
-0.1466536
 31
0.0
  0
LINE
  5
7C7
  8
TOPSOLDER
 10
-0.1279528
 20
-0.1466536
 30
0.0
 11
-0.1279528
 21
-0.0757876
 31
0.0
  0
LINE
  5
7C8
  8
TOPSOLDER
 10
-0.1279528
 20
-0.0757876
 30
0.0
 11
-0.1437008
 21
-0.0757876
 31
0.0
  0
LINE
  5
7C9
  8
TOPSOLDER
 10
-0.1437008
 20
-0.0757876
 30
0.0
 11
-0.1437008
 21
-0.1466536
 31
0.0
  0
LINE
  5
7CA
  8
TOPSOLDER
 10
-0.1437008
 20
-0.1466536
 30
0.0
 11
-0.1279528
 21
-0.1466536
 31
0.0
  0
LINE
  5
7CB
  8
TOPSOLDER
 10
-0.1043308
 20
-0.1466536
 30
0.0
 11
-0.1043308
 21
-0.0757876
 31
0.0
  0
LINE
  5
7CC
  8
TOPSOLDER
 10
-0.1043308
 20
-0.0757876
 30
0.0
 11
-0.1200788
 21
-0.0757876
 31
0.0
  0
LINE
  5
7CD
  8
TOPSOLDER
 10
-0.1200788
 20
-0.0757876
 30
0.0
 11
-0.1200788
 21
-0.1466536
 31
0.0
  0
LINE
  5
7CE
  8
TOPSOLDER
 10
-0.1200788
 20
-0.1466536
 30
0.0
 11
-0.1043308
 21
-0.1466536
 31
0.0
  0
LINE
  5
7CF
  8
TOPSOLDER
 10
-0.0807087
 20
-0.1466536
 30
0.0
 11
-0.0807087
 21
-0.0757876
 31
0.0
  0
LINE
  5
7D0
  8
TOPSOLDER
 10
-0.0807087
 20
-0.0757876
 30
0.0
 11
-0.0964567
 21
-0.0757876
 31
0.0
  0
LINE
  5
7D1
  8
TOPSOLDER
 10
-0.0964567
 20
-0.0757876
 30
0.0
 11
-0.0964567
 21
-0.1466536
 31
0.0
  0
LINE
  5
7D2
  8
TOPSOLDER
 10
-0.0964567
 20
-0.1466536
 30
0.0
 11
-0.0807087
 21
-0.1466536
 31
0.0
  0
LINE
  5
7D3
  8
TOPSOLDER
 10
-0.0570867
 20
-0.1466536
 30
0.0
 11
-0.0570867
 21
-0.0757876
 31
0.0
  0
LINE
  5
7D4
  8
TOPSOLDER
 10
-0.0570867
 20
-0.0757876
 30
0.0
 11
-0.0728347
 21
-0.0757876
 31
0.0
  0
LINE
  5
7D5
  8
TOPSOLDER
 10
-0.0728347
 20
-0.0757876
 30
0.0
 11
-0.0728347
 21
-0.1466536
 31
0.0
  0
LINE
  5
7D6
  8
TOPSOLDER
 10
-0.0728347
 20
-0.1466536
 30
0.0
 11
-0.0570867
 21
-0.1466536
 31
0.0
  0
LINE
  5
7D7
  8
TOPSOLDER
 10
-0.0334646
 20
-0.1466536
 30
0.0
 11
-0.0334646
 21
-0.0757876
 31
0.0
  0
LINE
  5
7D8
  8
TOPSOLDER
 10
-0.0334646
 20
-0.0757876
 30
0.0
 11
-0.0492126
 21
-0.0757876
 31
0.0
  0
LINE
  5
7D9
  8
TOPSOLDER
 10
-0.0492126
 20
-0.0757876
 30
0.0
 11
-0.0492126
 21
-0.1466536
 31
0.0
  0
LINE
  5
7DA
  8
TOPSOLDER
 10
-0.0492126
 20
-0.1466536
 30
0.0
 11
-0.0334646
 21
-0.1466536
 31
0.0
  0
LINE
  5
7DB
  8
TOPSOLDER
 10
-0.0098426
 20
-0.1466536
 30
0.0
 11
-0.0098426
 21
-0.0757876
 31
0.0
  0
LINE
  5
7DC
  8
TOPSOLDER
 10
-0.0098426
 20
-0.0757876
 30
0.0
 11
-0.0255906
 21
-0.0757876
 31
0.0
  0
LINE
  5
7DD
  8
TOPSOLDER
 10
-0.0255906
 20
-0.0757876
 30
0.0
 11
-0.0255906
 21
-0.1466536
 31
0.0
  0
LINE
  5
7DE
  8
TOPSOLDER
 10
-0.0255906
 20
-0.1466536
 30
0.0
 11
-0.0098426
 21
-0.1466536
 31
0.0
  0
LINE
  5
7DF
  8
TOPSOLDER
 10
0.273622
 20
-0.1466536
 30
0.0
 11
0.273622
 21
-0.0757876
 31
0.0
  0
LINE
  5
7E0
  8
TOPSOLDER
 10
0.273622
 20
-0.0757876
 30
0.0
 11
0.257874
 21
-0.0757876
 31
0.0
  0
LINE
  5
7E1
  8
TOPSOLDER
 10
0.257874
 20
-0.0757876
 30
0.0
 11
0.257874
 21
-0.1466536
 31
0.0
  0
LINE
  5
7E2
  8
TOPSOLDER
 10
0.257874
 20
-0.1466536
 30
0.0
 11
0.273622
 21
-0.1466536
 31
0.0
  0
LINE
  5
7E3
  8
TOPSOLDER
 10
0.25
 20
-0.1466536
 30
0.0
 11
0.25
 21
-0.0757876
 31
0.0
  0
LINE
  5
7E4
  8
TOPSOLDER
 10
0.25
 20
-0.0757876
 30
0.0
 11
0.234252
 21
-0.0757876
 31
0.0
  0
LINE
  5
7E5
  8
TOPSOLDER
 10
0.234252
 20
-0.0757876
 30
0.0
 11
0.234252
 21
-0.1466536
 31
0.0
  0
LINE
  5
7E6
  8
TOPSOLDER
 10
0.234252
 20
-0.1466536
 30
0.0
 11
0.25
 21
-0.1466536
 31
0.0
  0
LINE
  5
7E7
  8
TOPSOLDER
 10
0.2972441
 20
-0.1466536
 30
0.0
 11
0.2972441
 21
-0.0757876
 31
0.0
  0
LINE
  5
7E8
  8
TOPSOLDER
 10
0.2972441
 20
-0.0757876
 30
0.0
 11
0.2814961
 21
-0.0757876
 31
0.0
  0
LINE
  5
7E9
  8
TOPSOLDER
 10
0.2814961
 20
-0.0757876
 30
0.0
 11
0.2814961
 21
-0.1466536
 31
0.0
  0
LINE
  5
7EA
  8
TOPSOLDER
 10
0.2814961
 20
-0.1466536
 30
0.0
 11
0.2972441
 21
-0.1466536
 31
0.0
  0
LINE
  5
7EB
  8
TOPSOLDER
 10
0.3208661
 20
-0.1466536
 30
0.0
 11
0.3208661
 21
-0.0757876
 31
0.0
  0
LINE
  5
7EC
  8
TOPSOLDER
 10
0.3208661
 20
-0.0757876
 30
0.0
 11
0.3051181
 21
-0.0757876
 31
0.0
  0
LINE
  5
7ED
  8
TOPSOLDER
 10
0.3051181
 20
-0.0757876
 30
0.0
 11
0.3051181
 21
-0.1466536
 31
0.0
  0
LINE
  5
7EE
  8
TOPSOLDER
 10
0.3051181
 20
-0.1466536
 30
0.0
 11
0.3208661
 21
-0.1466536
 31
0.0
  0
LINE
  5
7EF
  8
TOPSOLDER
 10
0.3444882
 20
-0.1466536
 30
0.0
 11
0.3444882
 21
-0.0757876
 31
0.0
  0
LINE
  5
7F0
  8
TOPSOLDER
 10
0.3444882
 20
-0.0757876
 30
0.0
 11
0.3287402
 21
-0.0757876
 31
0.0
  0
LINE
  5
7F1
  8
TOPSOLDER
 10
0.3287402
 20
-0.0757876
 30
0.0
 11
0.3287402
 21
-0.1466536
 31
0.0
  0
LINE
  5
7F2
  8
TOPSOLDER
 10
0.3287402
 20
-0.1466536
 30
0.0
 11
0.3444882
 21
-0.1466536
 31
0.0
  0
LINE
  5
7F3
  8
TOPSOLDER
 10
0.3681102
 20
-0.1466536
 30
0.0
 11
0.3681102
 21
-0.0757876
 31
0.0
  0
LINE
  5
7F4
  8
TOPSOLDER
 10
0.3681102
 20
-0.0757876
 30
0.0
 11
0.3523622
 21
-0.0757876
 31
0.0
  0
LINE
  5
7F5
  8
TOPSOLDER
 10
0.3523622
 20
-0.0757876
 30
0.0
 11
0.3523622
 21
-0.1466536
 31
0.0
  0
LINE
  5
7F6
  8
TOPSOLDER
 10
0.3523622
 20
-0.1466536
 30
0.0
 11
0.3681102
 21
-0.1466536
 31
0.0
  0
LINE
  5
7F7
  8
TOPSOLDER
 10
0.3917323
 20
-0.1466536
 30
0.0
 11
0.3917323
 21
-0.0757876
 31
0.0
  0
LINE
  5
7F8
  8
TOPSOLDER
 10
0.3917323
 20
-0.0757876
 30
0.0
 11
0.3759843
 21
-0.0757876
 31
0.0
  0
LINE
  5
7F9
  8
TOPSOLDER
 10
0.3759843
 20
-0.0757876
 30
0.0
 11
0.3759843
 21
-0.1466536
 31
0.0
  0
LINE
  5
7FA
  8
TOPSOLDER
 10
0.3759843
 20
-0.1466536
 30
0.0
 11
0.3917323
 21
-0.1466536
 31
0.0
  0
LINE
  5
7FB
  8
TOPSOLDER
 10
0.4153543
 20
-0.1466536
 30
0.0
 11
0.4153543
 21
-0.0757876
 31
0.0
  0
LINE
  5
7FC
  8
TOPSOLDER
 10
0.4153543
 20
-0.0757876
 30
0.0
 11
0.3996063
 21
-0.0757876
 31
0.0
  0
LINE
  5
7FD
  8
TOPSOLDER
 10
0.3996063
 20
-0.0757876
 30
0.0
 11
0.3996063
 21
-0.1466536
 31
0.0
  0
LINE
  5
7FE
  8
TOPSOLDER
 10
0.3996063
 20
-0.1466536
 30
0.0
 11
0.4153543
 21
-0.1466536
 31
0.0
  0
LINE
  5
7FF
  8
TOPSOLDER
 10
0.4389764
 20
-0.1466536
 30
0.0
 11
0.4389764
 21
-0.0757876
 31
0.0
  0
LINE
  5
800
  8
TOPSOLDER
 10
0.4389764
 20
-0.0757876
 30
0.0
 11
0.4232284
 21
-0.0757876
 31
0.0
  0
LINE
  5
801
  8
TOPSOLDER
 10
0.4232284
 20
-0.0757876
 30
0.0
 11
0.4232284
 21
-0.1466536
 31
0.0
  0
LINE
  5
802
  8
TOPSOLDER
 10
0.4232284
 20
-0.1466536
 30
0.0
 11
0.4389764
 21
-0.1466536
 31
0.0
  0
LINE
  5
803
  8
TOPSOLDER
 10
0.4625984
 20
-0.1466536
 30
0.0
 11
0.4625984
 21
-0.0757876
 31
0.0
  0
LINE
  5
804
  8
TOPSOLDER
 10
0.4625984
 20
-0.0757876
 30
0.0
 11
0.4468504
 21
-0.0757876
 31
0.0
  0
LINE
  5
805
  8
TOPSOLDER
 10
0.4468504
 20
-0.0757876
 30
0.0
 11
0.4468504
 21
-0.1466536
 31
0.0
  0
LINE
  5
806
  8
TOPSOLDER
 10
0.4468504
 20
-0.1466536
 30
0.0
 11
0.4625984
 21
-0.1466536
 31
0.0
  0
LINE
  5
807
  8
TOPSOLDER
 10
-0.4389764
 20
0.1466534
 30
0.0
 11
-0.4389764
 21
0.0757874
 31
0.0
  0
LINE
  5
808
  8
TOPSOLDER
 10
-0.4389764
 20
0.0757874
 30
0.0
 11
-0.4232284
 21
0.0757874
 31
0.0
  0
LINE
  5
809
  8
TOPSOLDER
 10
-0.4232284
 20
0.0757874
 30
0.0
 11
-0.4232284
 21
0.1466534
 31
0.0
  0
LINE
  5
80A
  8
TOPSOLDER
 10
-0.4232284
 20
0.1466534
 30
0.0
 11
-0.4389764
 21
0.1466534
 31
0.0
  0
LINE
  5
80B
  8
TOPSOLDER
 10
-0.25
 20
0.1466534
 30
0.0
 11
-0.25
 21
0.0757874
 31
0.0
  0
LINE
  5
80C
  8
TOPSOLDER
 10
-0.25
 20
0.0757874
 30
0.0
 11
-0.234252
 21
0.0757874
 31
0.0
  0
LINE
  5
80D
  8
TOPSOLDER
 10
-0.234252
 20
0.0757874
 30
0.0
 11
-0.234252
 21
0.1466534
 31
0.0
  0
LINE
  5
80E
  8
TOPSOLDER
 10
-0.234252
 20
0.1466534
 30
0.0
 11
-0.25
 21
0.1466534
 31
0.0
  0
LINE
  5
80F
  8
TOPSOLDER
 10
-0.273622
 20
0.1466534
 30
0.0
 11
-0.273622
 21
0.0757874
 31
0.0
  0
LINE
  5
810
  8
TOPSOLDER
 10
-0.273622
 20
0.0757874
 30
0.0
 11
-0.257874
 21
0.0757874
 31
0.0
  0
LINE
  5
811
  8
TOPSOLDER
 10
-0.257874
 20
0.0757874
 30
0.0
 11
-0.257874
 21
0.1466534
 31
0.0
  0
LINE
  5
812
  8
TOPSOLDER
 10
-0.257874
 20
0.1466534
 30
0.0
 11
-0.273622
 21
0.1466534
 31
0.0
  0
LINE
  5
813
  8
TOPSOLDER
 10
-0.2972441
 20
0.1466534
 30
0.0
 11
-0.2972441
 21
0.0757874
 31
0.0
  0
LINE
  5
814
  8
TOPSOLDER
 10
-0.2972441
 20
0.0757874
 30
0.0
 11
-0.2814961
 21
0.0757874
 31
0.0
  0
LINE
  5
815
  8
TOPSOLDER
 10
-0.2814961
 20
0.0757874
 30
0.0
 11
-0.2814961
 21
0.1466534
 31
0.0
  0
LINE
  5
816
  8
TOPSOLDER
 10
-0.2814961
 20
0.1466534
 30
0.0
 11
-0.2972441
 21
0.1466534
 31
0.0
  0
LINE
  5
817
  8
TOPSOLDER
 10
-0.3208661
 20
0.1466534
 30
0.0
 11
-0.3208661
 21
0.0757874
 31
0.0
  0
LINE
  5
818
  8
TOPSOLDER
 10
-0.3208661
 20
0.0757874
 30
0.0
 11
-0.3051181
 21
0.0757874
 31
0.0
  0
LINE
  5
819
  8
TOPSOLDER
 10
-0.3051181
 20
0.0757874
 30
0.0
 11
-0.3051181
 21
0.1466534
 31
0.0
  0
LINE
  5
81A
  8
TOPSOLDER
 10
-0.3051181
 20
0.1466534
 30
0.0
 11
-0.3208661
 21
0.1466534
 31
0.0
  0
LINE
  5
81B
  8
TOPSOLDER
 10
-0.3444882
 20
0.1466534
 30
0.0
 11
-0.3444882
 21
0.0757874
 31
0.0
  0
LINE
  5
81C
  8
TOPSOLDER
 10
-0.3444882
 20
0.0757874
 30
0.0
 11
-0.3287402
 21
0.0757874
 31
0.0
  0
LINE
  5
81D
  8
TOPSOLDER
 10
-0.3287402
 20
0.0757874
 30
0.0
 11
-0.3287402
 21
0.1466534
 31
0.0
  0
LINE
  5
81E
  8
TOPSOLDER
 10
-0.3287402
 20
0.1466534
 30
0.0
 11
-0.3444882
 21
0.1466534
 31
0.0
  0
LINE
  5
81F
  8
TOPSOLDER
 10
-0.3681102
 20
0.1466534
 30
0.0
 11
-0.3681102
 21
0.0757874
 31
0.0
  0
LINE
  5
820
  8
TOPSOLDER
 10
-0.3681102
 20
0.0757874
 30
0.0
 11
-0.3523622
 21
0.0757874
 31
0.0
  0
LINE
  5
821
  8
TOPSOLDER
 10
-0.3523622
 20
0.0757874
 30
0.0
 11
-0.3523622
 21
0.1466534
 31
0.0
  0
LINE
  5
822
  8
TOPSOLDER
 10
-0.3523622
 20
0.1466534
 30
0.0
 11
-0.3681102
 21
0.1466534
 31
0.0
  0
LINE
  5
823
  8
TOPSOLDER
 10
-0.3917323
 20
0.1466534
 30
0.0
 11
-0.3917323
 21
0.0757874
 31
0.0
  0
LINE
  5
824
  8
TOPSOLDER
 10
-0.3917323
 20
0.0757874
 30
0.0
 11
-0.3759843
 21
0.0757874
 31
0.0
  0
LINE
  5
825
  8
TOPSOLDER
 10
-0.3759843
 20
0.0757874
 30
0.0
 11
-0.3759843
 21
0.1466534
 31
0.0
  0
LINE
  5
826
  8
TOPSOLDER
 10
-0.3759843
 20
0.1466534
 30
0.0
 11
-0.3917323
 21
0.1466534
 31
0.0
  0
LINE
  5
827
  8
TOPSOLDER
 10
-0.4153543
 20
0.1466534
 30
0.0
 11
-0.4153543
 21
0.0757874
 31
0.0
  0
LINE
  5
828
  8
TOPSOLDER
 10
-0.4153543
 20
0.0757874
 30
0.0
 11
-0.3996063
 21
0.0757874
 31
0.0
  0
LINE
  5
829
  8
TOPSOLDER
 10
-0.3996063
 20
0.0757874
 30
0.0
 11
-0.3996063
 21
0.1466534
 31
0.0
  0
LINE
  5
82A
  8
TOPSOLDER
 10
-0.3996063
 20
0.1466534
 30
0.0
 11
-0.4153543
 21
0.1466534
 31
0.0
  0
LINE
  5
82B
  8
TOPSOLDER
 10
-0.226378
 20
0.1466534
 30
0.0
 11
-0.226378
 21
0.0757874
 31
0.0
  0
LINE
  5
82C
  8
TOPSOLDER
 10
-0.226378
 20
0.0757874
 30
0.0
 11
-0.21063
 21
0.0757874
 31
0.0
  0
LINE
  5
82D
  8
TOPSOLDER
 10
-0.21063
 20
0.0757874
 30
0.0
 11
-0.21063
 21
0.1466534
 31
0.0
  0
LINE
  5
82E
  8
TOPSOLDER
 10
-0.21063
 20
0.1466534
 30
0.0
 11
-0.226378
 21
0.1466534
 31
0.0
  0
LINE
  5
82F
  8
TOPSOLDER
 10
0.246063
 20
0.1466534
 30
0.0
 11
0.246063
 21
0.0757874
 31
0.0
  0
LINE
  5
830
  8
TOPSOLDER
 10
0.246063
 20
0.0757874
 30
0.0
 11
0.261811
 21
0.0757874
 31
0.0
  0
LINE
  5
831
  8
TOPSOLDER
 10
0.261811
 20
0.0757874
 30
0.0
 11
0.261811
 21
0.1466534
 31
0.0
  0
LINE
  5
832
  8
TOPSOLDER
 10
0.261811
 20
0.1466534
 30
0.0
 11
0.246063
 21
0.1466534
 31
0.0
  0
LINE
  5
833
  8
TOPSOLDER
 10
0.4350394
 20
0.1466534
 30
0.0
 11
0.4350394
 21
0.0757874
 31
0.0
  0
LINE
  5
834
  8
TOPSOLDER
 10
0.4350394
 20
0.0757874
 30
0.0
 11
0.4507874
 21
0.0757874
 31
0.0
  0
LINE
  5
835
  8
TOPSOLDER
 10
0.4507874
 20
0.0757874
 30
0.0
 11
0.4507874
 21
0.1466534
 31
0.0
  0
LINE
  5
836
  8
TOPSOLDER
 10
0.4507874
 20
0.1466534
 30
0.0
 11
0.4350394
 21
0.1466534
 31
0.0
  0
LINE
  5
837
  8
TOPSOLDER
 10
0.4114174
 20
0.1466534
 30
0.0
 11
0.4114174
 21
0.0757874
 31
0.0
  0
LINE
  5
838
  8
TOPSOLDER
 10
0.4114174
 20
0.0757874
 30
0.0
 11
0.4271654
 21
0.0757874
 31
0.0
  0
LINE
  5
839
  8
TOPSOLDER
 10
0.4271654
 20
0.0757874
 30
0.0
 11
0.4271654
 21
0.1466534
 31
0.0
  0
LINE
  5
83A
  8
TOPSOLDER
 10
0.4271654
 20
0.1466534
 30
0.0
 11
0.4114174
 21
0.1466534
 31
0.0
  0
LINE
  5
83B
  8
TOPSOLDER
 10
0.3877953
 20
0.1466534
 30
0.0
 11
0.3877953
 21
0.0757874
 31
0.0
  0
LINE
  5
83C
  8
TOPSOLDER
 10
0.3877953
 20
0.0757874
 30
0.0
 11
0.4035433
 21
0.0757874
 31
0.0
  0
LINE
  5
83D
  8
TOPSOLDER
 10
0.4035433
 20
0.0757874
 30
0.0
 11
0.4035433
 21
0.1466534
 31
0.0
  0
LINE
  5
83E
  8
TOPSOLDER
 10
0.4035433
 20
0.1466534
 30
0.0
 11
0.3877953
 21
0.1466534
 31
0.0
  0
LINE
  5
83F
  8
TOPSOLDER
 10
0.3641733
 20
0.1466534
 30
0.0
 11
0.3641733
 21
0.0757874
 31
0.0
  0
LINE
  5
840
  8
TOPSOLDER
 10
0.3641733
 20
0.0757874
 30
0.0
 11
0.3799213
 21
0.0757874
 31
0.0
  0
LINE
  5
841
  8
TOPSOLDER
 10
0.3799213
 20
0.0757874
 30
0.0
 11
0.3799213
 21
0.1466534
 31
0.0
  0
LINE
  5
842
  8
TOPSOLDER
 10
0.3799213
 20
0.1466534
 30
0.0
 11
0.3641733
 21
0.1466534
 31
0.0
  0
LINE
  5
843
  8
TOPSOLDER
 10
0.3405512
 20
0.1466534
 30
0.0
 11
0.3405512
 21
0.0757874
 31
0.0
  0
LINE
  5
844
  8
TOPSOLDER
 10
0.3405512
 20
0.0757874
 30
0.0
 11
0.3562992
 21
0.0757874
 31
0.0
  0
LINE
  5
845
  8
TOPSOLDER
 10
0.3562992
 20
0.0757874
 30
0.0
 11
0.3562992
 21
0.1466534
 31
0.0
  0
LINE
  5
846
  8
TOPSOLDER
 10
0.3562992
 20
0.1466534
 30
0.0
 11
0.3405512
 21
0.1466534
 31
0.0
  0
LINE
  5
847
  8
TOPSOLDER
 10
0.3169292
 20
0.1466534
 30
0.0
 11
0.3169292
 21
0.0757874
 31
0.0
  0
LINE
  5
848
  8
TOPSOLDER
 10
0.3169292
 20
0.0757874
 30
0.0
 11
0.3326772
 21
0.0757874
 31
0.0
  0
LINE
  5
849
  8
TOPSOLDER
 10
0.3326772
 20
0.0757874
 30
0.0
 11
0.3326772
 21
0.1466534
 31
0.0
  0
LINE
  5
84A
  8
TOPSOLDER
 10
0.3326772
 20
0.1466534
 30
0.0
 11
0.3169292
 21
0.1466534
 31
0.0
  0
LINE
  5
84B
  8
TOPSOLDER
 10
0.2933071
 20
0.1466534
 30
0.0
 11
0.2933071
 21
0.0757874
 31
0.0
  0
LINE
  5
84C
  8
TOPSOLDER
 10
0.2933071
 20
0.0757874
 30
0.0
 11
0.3090551
 21
0.0757874
 31
0.0
  0
LINE
  5
84D
  8
TOPSOLDER
 10
0.3090551
 20
0.0757874
 30
0.0
 11
0.3090551
 21
0.1466534
 31
0.0
  0
LINE
  5
84E
  8
TOPSOLDER
 10
0.3090551
 20
0.1466534
 30
0.0
 11
0.2933071
 21
0.1466534
 31
0.0
  0
LINE
  5
84F
  8
TOPSOLDER
 10
0.2696851
 20
0.1466534
 30
0.0
 11
0.2696851
 21
0.0757874
 31
0.0
  0
LINE
  5
850
  8
TOPSOLDER
 10
0.2696851
 20
0.0757874
 30
0.0
 11
0.2854331
 21
0.0757874
 31
0.0
  0
LINE
  5
851
  8
TOPSOLDER
 10
0.2854331
 20
0.0757874
 30
0.0
 11
0.2854331
 21
0.1466534
 31
0.0
  0
LINE
  5
852
  8
TOPSOLDER
 10
0.2854331
 20
0.1466534
 30
0.0
 11
0.2696851
 21
0.1466534
 31
0.0
  0
LINE
  5
853
  8
TOPSOLDER
 10
0.4586614
 20
0.1466534
 30
0.0
 11
0.4586614
 21
0.0757874
 31
0.0
  0
LINE
  5
854
  8
TOPSOLDER
 10
0.4586614
 20
0.0757874
 30
0.0
 11
0.4744094
 21
0.0757874
 31
0.0
  0
LINE
  5
855
  8
TOPSOLDER
 10
0.4744094
 20
0.0757874
 30
0.0
 11
0.4744094
 21
0.1466534
 31
0.0
  0
LINE
  5
856
  8
TOPSOLDER
 10
0.4744094
 20
0.1466534
 30
0.0
 11
0.4586614
 21
0.1466534
 31
0.0
  0
LINE
  5
857
  8
TOPSOLDER
 10
0.2224409
 20
0.1466534
 30
0.0
 11
0.2224409
 21
0.0757874
 31
0.0
  0
LINE
  5
858
  8
TOPSOLDER
 10
0.2224409
 20
0.0757874
 30
0.0
 11
0.2381889
 21
0.0757874
 31
0.0
  0
LINE
  5
859
  8
TOPSOLDER
 10
0.2381889
 20
0.0757874
 30
0.0
 11
0.2381889
 21
0.1466534
 31
0.0
  0
LINE
  5
85A
  8
TOPSOLDER
 10
0.2381889
 20
0.1466534
 30
0.0
 11
0.2224409
 21
0.1466534
 31
0.0
  0
LINE
  5
85B
  8
TOPSOLDER
 10
0.0334646
 20
0.1466534
 30
0.0
 11
0.0334646
 21
0.0757874
 31
0.0
  0
LINE
  5
85C
  8
TOPSOLDER
 10
0.0334646
 20
0.0757874
 30
0.0
 11
0.0492126
 21
0.0757874
 31
0.0
  0
LINE
  5
85D
  8
TOPSOLDER
 10
0.0492126
 20
0.0757874
 30
0.0
 11
0.0492126
 21
0.1466534
 31
0.0
  0
LINE
  5
85E
  8
TOPSOLDER
 10
0.0492126
 20
0.1466534
 30
0.0
 11
0.0334646
 21
0.1466534
 31
0.0
  0
LINE
  5
85F
  8
TOPSOLDER
 10
0.0570866
 20
0.1466534
 30
0.0
 11
0.0570866
 21
0.0757874
 31
0.0
  0
LINE
  5
860
  8
TOPSOLDER
 10
0.0570866
 20
0.0757874
 30
0.0
 11
0.0728346
 21
0.0757874
 31
0.0
  0
LINE
  5
861
  8
TOPSOLDER
 10
0.0728346
 20
0.0757874
 30
0.0
 11
0.0728346
 21
0.1466534
 31
0.0
  0
LINE
  5
862
  8
TOPSOLDER
 10
0.0728346
 20
0.1466534
 30
0.0
 11
0.0570866
 21
0.1466534
 31
0.0
  0
LINE
  5
863
  8
TOPSOLDER
 10
0.0807087
 20
0.1466534
 30
0.0
 11
0.0807087
 21
0.0757874
 31
0.0
  0
LINE
  5
864
  8
TOPSOLDER
 10
0.0807087
 20
0.0757874
 30
0.0
 11
0.0964567
 21
0.0757874
 31
0.0
  0
LINE
  5
865
  8
TOPSOLDER
 10
0.0964567
 20
0.0757874
 30
0.0
 11
0.0964567
 21
0.1466534
 31
0.0
  0
LINE
  5
866
  8
TOPSOLDER
 10
0.0964567
 20
0.1466534
 30
0.0
 11
0.0807087
 21
0.1466534
 31
0.0
  0
LINE
  5
867
  8
TOPSOLDER
 10
0.1043307
 20
0.1466534
 30
0.0
 11
0.1043307
 21
0.0757874
 31
0.0
  0
LINE
  5
868
  8
TOPSOLDER
 10
0.1043307
 20
0.0757874
 30
0.0
 11
0.1200787
 21
0.0757874
 31
0.0
  0
LINE
  5
869
  8
TOPSOLDER
 10
0.1200787
 20
0.0757874
 30
0.0
 11
0.1200787
 21
0.1466534
 31
0.0
  0
LINE
  5
86A
  8
TOPSOLDER
 10
0.1200787
 20
0.1466534
 30
0.0
 11
0.1043307
 21
0.1466534
 31
0.0
  0
LINE
  5
86B
  8
TOPSOLDER
 10
0.1279528
 20
0.1466534
 30
0.0
 11
0.1279528
 21
0.0757874
 31
0.0
  0
LINE
  5
86C
  8
TOPSOLDER
 10
0.1279528
 20
0.0757874
 30
0.0
 11
0.1437008
 21
0.0757874
 31
0.0
  0
LINE
  5
86D
  8
TOPSOLDER
 10
0.1437008
 20
0.0757874
 30
0.0
 11
0.1437008
 21
0.1466534
 31
0.0
  0
LINE
  5
86E
  8
TOPSOLDER
 10
0.1437008
 20
0.1466534
 30
0.0
 11
0.1279528
 21
0.1466534
 31
0.0
  0
LINE
  5
86F
  8
TOPSOLDER
 10
0.1515748
 20
0.1466534
 30
0.0
 11
0.1515748
 21
0.0757874
 31
0.0
  0
LINE
  5
870
  8
TOPSOLDER
 10
0.1515748
 20
0.0757874
 30
0.0
 11
0.1673228
 21
0.0757874
 31
0.0
  0
LINE
  5
871
  8
TOPSOLDER
 10
0.1673228
 20
0.0757874
 30
0.0
 11
0.1673228
 21
0.1466534
 31
0.0
  0
LINE
  5
872
  8
TOPSOLDER
 10
0.1673228
 20
0.1466534
 30
0.0
 11
0.1515748
 21
0.1466534
 31
0.0
  0
LINE
  5
873
  8
TOPSOLDER
 10
0.1751969
 20
0.1466534
 30
0.0
 11
0.1751969
 21
0.0757874
 31
0.0
  0
LINE
  5
874
  8
TOPSOLDER
 10
0.1751969
 20
0.0757874
 30
0.0
 11
0.1909449
 21
0.0757874
 31
0.0
  0
LINE
  5
875
  8
TOPSOLDER
 10
0.1909449
 20
0.0757874
 30
0.0
 11
0.1909449
 21
0.1466534
 31
0.0
  0
LINE
  5
876
  8
TOPSOLDER
 10
0.1909449
 20
0.1466534
 30
0.0
 11
0.1751969
 21
0.1466534
 31
0.0
  0
LINE
  5
877
  8
TOPSOLDER
 10
0.1988189
 20
0.1466534
 30
0.0
 11
0.1988189
 21
0.0757874
 31
0.0
  0
LINE
  5
878
  8
TOPSOLDER
 10
0.1988189
 20
0.0757874
 30
0.0
 11
0.2145669
 21
0.0757874
 31
0.0
  0
LINE
  5
879
  8
TOPSOLDER
 10
0.2145669
 20
0.0757874
 30
0.0
 11
0.2145669
 21
0.1466534
 31
0.0
  0
LINE
  5
87A
  8
TOPSOLDER
 10
0.2145669
 20
0.1466534
 30
0.0
 11
0.1988189
 21
0.1466534
 31
0.0
  0
LINE
  5
87B
  8
TOPSOLDER
 10
-0.0137795
 20
0.1466534
 30
0.0
 11
-0.0137795
 21
0.0757874
 31
0.0
  0
LINE
  5
87C
  8
TOPSOLDER
 10
-0.0137795
 20
0.0757874
 30
0.0
 11
0.0019685
 21
0.0757874
 31
0.0
  0
LINE
  5
87D
  8
TOPSOLDER
 10
0.0019685
 20
0.0757874
 30
0.0
 11
0.0019685
 21
0.1466534
 31
0.0
  0
LINE
  5
87E
  8
TOPSOLDER
 10
0.0019685
 20
0.1466534
 30
0.0
 11
-0.0137795
 21
0.1466534
 31
0.0
  0
LINE
  5
87F
  8
TOPSOLDER
 10
0.0098425
 20
0.1466534
 30
0.0
 11
0.0098425
 21
0.0757874
 31
0.0
  0
LINE
  5
880
  8
TOPSOLDER
 10
0.0098425
 20
0.0757874
 30
0.0
 11
0.0255905
 21
0.0757874
 31
0.0
  0
LINE
  5
881
  8
TOPSOLDER
 10
0.0255905
 20
0.0757874
 30
0.0
 11
0.0255905
 21
0.1466534
 31
0.0
  0
LINE
  5
882
  8
TOPSOLDER
 10
0.0255905
 20
0.1466534
 30
0.0
 11
0.0098425
 21
0.1466534
 31
0.0
  0
LINE
  5
883
  8
TOPSOLDER
 10
-0.0374016
 20
0.1466534
 30
0.0
 11
-0.0374016
 21
0.0757874
 31
0.0
  0
LINE
  5
884
  8
TOPSOLDER
 10
-0.0374016
 20
0.0757874
 30
0.0
 11
-0.0216536
 21
0.0757874
 31
0.0
  0
LINE
  5
885
  8
TOPSOLDER
 10
-0.0216536
 20
0.0757874
 30
0.0
 11
-0.0216536
 21
0.1466534
 31
0.0
  0
LINE
  5
886
  8
TOPSOLDER
 10
-0.0216536
 20
0.1466534
 30
0.0
 11
-0.0374016
 21
0.1466534
 31
0.0
  0
LINE
  5
887
  8
TOPSOLDER
 10
-0.0610236
 20
0.1466534
 30
0.0
 11
-0.0610236
 21
0.0757874
 31
0.0
  0
LINE
  5
888
  8
TOPSOLDER
 10
-0.0610236
 20
0.0757874
 30
0.0
 11
-0.0452756
 21
0.0757874
 31
0.0
  0
LINE
  5
889
  8
TOPSOLDER
 10
-0.0452756
 20
0.0757874
 30
0.0
 11
-0.0452756
 21
0.1466534
 31
0.0
  0
LINE
  5
88A
  8
TOPSOLDER
 10
-0.0452756
 20
0.1466534
 30
0.0
 11
-0.0610236
 21
0.1466534
 31
0.0
  0
LINE
  5
88B
  8
TOPSOLDER
 10
-0.0846457
 20
0.1466534
 30
0.0
 11
-0.0846457
 21
0.0757874
 31
0.0
  0
LINE
  5
88C
  8
TOPSOLDER
 10
-0.0846457
 20
0.0757874
 30
0.0
 11
-0.0688977
 21
0.0757874
 31
0.0
  0
LINE
  5
88D
  8
TOPSOLDER
 10
-0.0688977
 20
0.0757874
 30
0.0
 11
-0.0688977
 21
0.1466534
 31
0.0
  0
LINE
  5
88E
  8
TOPSOLDER
 10
-0.0688977
 20
0.1466534
 30
0.0
 11
-0.0846457
 21
0.1466534
 31
0.0
  0
LINE
  5
88F
  8
TOPSOLDER
 10
-0.1082677
 20
0.1466534
 30
0.0
 11
-0.1082677
 21
0.0757874
 31
0.0
  0
LINE
  5
890
  8
TOPSOLDER
 10
-0.1082677
 20
0.0757874
 30
0.0
 11
-0.0925197
 21
0.0757874
 31
0.0
  0
LINE
  5
891
  8
TOPSOLDER
 10
-0.0925197
 20
0.0757874
 30
0.0
 11
-0.0925197
 21
0.1466534
 31
0.0
  0
LINE
  5
892
  8
TOPSOLDER
 10
-0.0925197
 20
0.1466534
 30
0.0
 11
-0.1082677
 21
0.1466534
 31
0.0
  0
LINE
  5
893
  8
TOPSOLDER
 10
-0.1318898
 20
0.1466534
 30
0.0
 11
-0.1318898
 21
0.0757874
 31
0.0
  0
LINE
  5
894
  8
TOPSOLDER
 10
-0.1318898
 20
0.0757874
 30
0.0
 11
-0.1161418
 21
0.0757874
 31
0.0
  0
LINE
  5
895
  8
TOPSOLDER
 10
-0.1161418
 20
0.0757874
 30
0.0
 11
-0.1161418
 21
0.1466534
 31
0.0
  0
LINE
  5
896
  8
TOPSOLDER
 10
-0.1161418
 20
0.1466534
 30
0.0
 11
-0.1318898
 21
0.1466534
 31
0.0
  0
LINE
  5
897
  8
TOPSOLDER
 10
-0.1555118
 20
0.1466534
 30
0.0
 11
-0.1555118
 21
0.0757874
 31
0.0
  0
LINE
  5
898
  8
TOPSOLDER
 10
-0.1555118
 20
0.0757874
 30
0.0
 11
-0.1397638
 21
0.0757874
 31
0.0
  0
LINE
  5
899
  8
TOPSOLDER
 10
-0.1397638
 20
0.0757874
 30
0.0
 11
-0.1397638
 21
0.1466534
 31
0.0
  0
LINE
  5
89A
  8
TOPSOLDER
 10
-0.1397638
 20
0.1466534
 30
0.0
 11
-0.1555118
 21
0.1466534
 31
0.0
  0
LINE
  5
89B
  8
TOPSOLDER
 10
-0.1791339
 20
0.1466534
 30
0.0
 11
-0.1791339
 21
0.0757874
 31
0.0
  0
LINE
  5
89C
  8
TOPSOLDER
 10
-0.1791339
 20
0.0757874
 30
0.0
 11
-0.1633859
 21
0.0757874
 31
0.0
  0
LINE
  5
89D
  8
TOPSOLDER
 10
-0.1633859
 20
0.0757874
 30
0.0
 11
-0.1633859
 21
0.1466534
 31
0.0
  0
LINE
  5
89E
  8
TOPSOLDER
 10
-0.1633859
 20
0.1466534
 30
0.0
 11
-0.1791339
 21
0.1466534
 31
0.0
  0
LINE
  5
89F
  8
TOPSOLDER
 10
-0.2027559
 20
0.1466534
 30
0.0
 11
-0.2027559
 21
0.0757874
 31
0.0
  0
LINE
  5
8A0
  8
TOPSOLDER
 10
-0.2027559
 20
0.0757874
 30
0.0
 11
-0.1870079
 21
0.0757874
 31
0.0
  0
LINE
  5
8A1
  8
TOPSOLDER
 10
-0.1870079
 20
0.0757874
 30
0.0
 11
-0.1870079
 21
0.1466534
 31
0.0
  0
LINE
  5
8A2
  8
TOPSOLDER
 10
-0.1870079
 20
0.1466534
 30
0.0
 11
-0.2027559
 21
0.1466534
 31
0.0
  0
LINE
  5
8A3
  8
TOPSOLDER
 10
0.2263779
 20
-0.1466536
 30
0.0
 11
0.2263779
 21
-0.0757876
 31
0.0
  0
LINE
  5
8A4
  8
TOPSOLDER
 10
0.2263779
 20
-0.0757876
 30
0.0
 11
0.2106299
 21
-0.0757876
 31
0.0
  0
LINE
  5
8A5
  8
TOPSOLDER
 10
0.2106299
 20
-0.0757876
 30
0.0
 11
0.2106299
 21
-0.1466536
 31
0.0
  0
LINE
  5
8A6
  8
TOPSOLDER
 10
0.2106299
 20
-0.1466536
 30
0.0
 11
0.2263779
 21
-0.1466536
 31
0.0
  0
LINE
  5
8A7
  8
TOPSOLDER
 10
0.2027559
 20
-0.1466536
 30
0.0
 11
0.2027559
 21
-0.0757876
 31
0.0
  0
LINE
  5
8A8
  8
TOPSOLDER
 10
0.2027559
 20
-0.0757876
 30
0.0
 11
0.1870079
 21
-0.0757876
 31
0.0
  0
LINE
  5
8A9
  8
TOPSOLDER
 10
0.1870079
 20
-0.0757876
 30
0.0
 11
0.1870079
 21
-0.1466536
 31
0.0
  0
LINE
  5
8AA
  8
TOPSOLDER
 10
0.1870079
 20
-0.1466536
 30
0.0
 11
0.2027559
 21
-0.1466536
 31
0.0
  0
LINE
  5
8AB
  8
TOPSOLDER
 10
0.1791338
 20
-0.1466536
 30
0.0
 11
0.1791338
 21
-0.0757876
 31
0.0
  0
LINE
  5
8AC
  8
TOPSOLDER
 10
0.1791338
 20
-0.0757876
 30
0.0
 11
0.1633858
 21
-0.0757876
 31
0.0
  0
LINE
  5
8AD
  8
TOPSOLDER
 10
0.1633858
 20
-0.0757876
 30
0.0
 11
0.1633858
 21
-0.1466536
 31
0.0
  0
LINE
  5
8AE
  8
TOPSOLDER
 10
0.1633858
 20
-0.1466536
 30
0.0
 11
0.1791338
 21
-0.1466536
 31
0.0
  0
LINE
  5
8AF
  8
TOPSOLDER
 10
0.1555118
 20
-0.1466536
 30
0.0
 11
0.1555118
 21
-0.0757876
 31
0.0
  0
LINE
  5
8B0
  8
TOPSOLDER
 10
0.1555118
 20
-0.0757876
 30
0.0
 11
0.1397638
 21
-0.0757876
 31
0.0
  0
LINE
  5
8B1
  8
TOPSOLDER
 10
0.1397638
 20
-0.0757876
 30
0.0
 11
0.1397638
 21
-0.1466536
 31
0.0
  0
LINE
  5
8B2
  8
TOPSOLDER
 10
0.1397638
 20
-0.1466536
 30
0.0
 11
0.1555118
 21
-0.1466536
 31
0.0
  0
LINE
  5
8B3
  8
TOPSOLDER
 10
0.1318897
 20
-0.1466536
 30
0.0
 11
0.1318897
 21
-0.0757876
 31
0.0
  0
LINE
  5
8B4
  8
TOPSOLDER
 10
0.1318897
 20
-0.0757876
 30
0.0
 11
0.1161417
 21
-0.0757876
 31
0.0
  0
LINE
  5
8B5
  8
TOPSOLDER
 10
0.1161417
 20
-0.0757876
 30
0.0
 11
0.1161417
 21
-0.1466536
 31
0.0
  0
LINE
  5
8B6
  8
TOPSOLDER
 10
0.1161417
 20
-0.1466536
 30
0.0
 11
0.1318897
 21
-0.1466536
 31
0.0
  0
LINE
  5
8B7
  8
TOPSOLDER
 10
0.1082677
 20
-0.1466536
 30
0.0
 11
0.1082677
 21
-0.0757876
 31
0.0
  0
LINE
  5
8B8
  8
TOPSOLDER
 10
0.1082677
 20
-0.0757876
 30
0.0
 11
0.0925197
 21
-0.0757876
 31
0.0
  0
LINE
  5
8B9
  8
TOPSOLDER
 10
0.0925197
 20
-0.0757876
 30
0.0
 11
0.0925197
 21
-0.1466536
 31
0.0
  0
LINE
  5
8BA
  8
TOPSOLDER
 10
0.0925197
 20
-0.1466536
 30
0.0
 11
0.1082677
 21
-0.1466536
 31
0.0
  0
LINE
  5
8BB
  8
TOPSOLDER
 10
0.0846456
 20
-0.1466536
 30
0.0
 11
0.0846456
 21
-0.0757876
 31
0.0
  0
LINE
  5
8BC
  8
TOPSOLDER
 10
0.0846456
 20
-0.0757876
 30
0.0
 11
0.0688976
 21
-0.0757876
 31
0.0
  0
LINE
  5
8BD
  8
TOPSOLDER
 10
0.0688976
 20
-0.0757876
 30
0.0
 11
0.0688976
 21
-0.1466536
 31
0.0
  0
LINE
  5
8BE
  8
TOPSOLDER
 10
0.0688976
 20
-0.1466536
 30
0.0
 11
0.0846456
 21
-0.1466536
 31
0.0
  0
LINE
  5
8BF
  8
TOPSOLDER
 10
0.0610236
 20
-0.1466536
 30
0.0
 11
0.0610236
 21
-0.0757876
 31
0.0
  0
LINE
  5
8C0
  8
TOPSOLDER
 10
0.0610236
 20
-0.0757876
 30
0.0
 11
0.0452756
 21
-0.0757876
 31
0.0
  0
LINE
  5
8C1
  8
TOPSOLDER
 10
0.0452756
 20
-0.0757876
 30
0.0
 11
0.0452756
 21
-0.1466536
 31
0.0
  0
LINE
  5
8C2
  8
TOPSOLDER
 10
0.0452756
 20
-0.1466536
 30
0.0
 11
0.0610236
 21
-0.1466536
 31
0.0
  0
LINE
  5
8C3
  8
TOPSOLDER
 10
0.0137795
 20
-0.1466536
 30
0.0
 11
0.0137795
 21
-0.0757876
 31
0.0
  0
LINE
  5
8C4
  8
TOPSOLDER
 10
0.0137795
 20
-0.0757876
 30
0.0
 11
-0.0019685
 21
-0.0757876
 31
0.0
  0
LINE
  5
8C5
  8
TOPSOLDER
 10
-0.0019685
 20
-0.0757876
 30
0.0
 11
-0.0019685
 21
-0.1466536
 31
0.0
  0
LINE
  5
8C6
  8
TOPSOLDER
 10
-0.0019685
 20
-0.1466536
 30
0.0
 11
0.0137795
 21
-0.1466536
 31
0.0
  0
LINE
  5
8C7
  8
TOPSOLDER
 10
0.0374015
 20
-0.1466536
 30
0.0
 11
0.0374015
 21
-0.0757876
 31
0.0
  0
LINE
  5
8C8
  8
TOPSOLDER
 10
0.0374015
 20
-0.0757876
 30
0.0
 11
0.0216535
 21
-0.0757876
 31
0.0
  0
LINE
  5
8C9
  8
TOPSOLDER
 10
0.0216535
 20
-0.0757876
 30
0.0
 11
0.0216535
 21
-0.1466536
 31
0.0
  0
LINE
  5
8CA
  8
TOPSOLDER
 10
0.0216535
 20
-0.1466536
 30
0.0
 11
0.0374015
 21
-0.1466536
 31
0.0
  0
ENDBLK
  5
78A
  8
0
  0
BLOCK
  8
0
  2
HC49_150
 70
     0
 10
0.0
 20
0.0
 30
0.0
  3
HC49_150
  1

  0
CIRCLE
  5
8CF
  8
TOPSOLDER
 10
0.0
 20
0.0
 30
0.0
 40
0.0413386
  0
CIRCLE
  5
8D0
  8
TOPSOLDER
 10
0.195
 20
0.0
 30
0.0
 40
0.0413386
  0
ENDBLK
  5
8CE
  8
0
  0
BLOCK
  8
0
  2
R0603_B_151
 70
     0
 10
0.0
 20
0.0
 30
0.0
  3
R0603_B_151
  1

  0
ENDBLK
  5
8D4
  8
0
  0
BLOCK
  8
0
  2
D0805_152
 70
     0
 10
0.0
 20
0.0
 30
0.0
  3
D0805_152
  1

  0
LINE
  5
8D9
  8
TOPSOLDER
 10
0.0215748
 20
0.0277992
 30
0.0
 11
0.0215748
 21
-0.0281378
 31
0.0
  0
LINE
  5
8DA
  8
TOPSOLDER
 10
0.0215748
 20
-0.0281378
 30
0.0
 11
0.0655118
 21
-0.0281378
 31
0.0
  0
LINE
  5
8DB
  8
TOPSOLDER
 10
0.0655118
 20
-0.0281378
 30
0.0
 11
0.0655118
 21
0.0277992
 31
0.0
  0
LINE
  5
8DC
  8
TOPSOLDER
 10
0.0655118
 20
0.0277992
 30
0.0
 11
0.0215748
 21
0.0277992
 31
0.0
  0
LINE
  5
8DD
  8
TOPSOLDER
 10
-0.0664252
 20
0.0277992
 30
0.0
 11
-0.0664252
 21
-0.0281378
 31
0.0
  0
LINE
  5
8DE
  8
TOPSOLDER
 10
-0.0664252
 20
-0.0281378
 30
0.0
 11
-0.0224882
 21
-0.0281378
 31
0.0
  0
LINE
  5
8DF
  8
TOPSOLDER
 10
-0.0224882
 20
-0.0281378
 30
0.0
 11
-0.0224882
 21
0.0277992
 31
0.0
  0
LINE
  5
8E0
  8
TOPSOLDER
 10
-0.0224882
 20
0.0277992
 30
0.0
 11
-0.0664252
 21
0.0277992
 31
0.0
  0
ENDBLK
  5
8D8
  8
0
  0
BLOCK
  8
0
  2
D0805_153
 70
     0
 10
0.0
 20
0.0
 30
0.0
  3
D0805_153
  1

  0
LINE
  5
8E5
  8
TOPSOLDER
 10
0.0215748
 20
0.0277992
 30
0.0
 11
0.0215748
 21
-0.0281378
 31
0.0
  0
LINE
  5
8E6
  8
TOPSOLDER
 10
0.0215748
 20
-0.0281378
 30
0.0
 11
0.0655118
 21
-0.0281378
 31
0.0
  0
LINE
  5
8E7
  8
TOPSOLDER
 10
0.0655118
 20
-0.0281378
 30
0.0
 11
0.0655118
 21
0.0277992
 31
0.0
  0
LINE
  5
8E8
  8
TOPSOLDER
 10
0.0655118
 20
0.0277992
 30
0.0
 11
0.0215748
 21
0.0277992
 31
0.0
  0
LINE
  5
8E9
  8
TOPSOLDER
 10
-0.0664252
 20
0.0277992
 30
0.0
 11
-0.0664252
 21
-0.0281378
 31
0.0
  0
LINE
  5
8EA
  8
TOPSOLDER
 10
-0.0664252
 20
-0.0281378
 30
0.0
 11
-0.0224882
 21
-0.0281378
 31
0.0
  0
LINE
  5
8EB
  8
TOPSOLDER
 10
-0.0224882
 20
-0.0281378
 30
0.0
 11
-0.0224882
 21
0.0277992
 31
0.0
  0
LINE
  5
8EC
  8
TOPSOLDER
 10
-0.0224882
 20
0.0277992
 30
0.0
 11
-0.0664252
 21
0.0277992
 31
0.0
  0
ENDBLK
  5
8E4
  8
0
  0
BLOCK
  8
0
  2
C0603_B_154
 70
     0
 10
0.0
 20
0.0
 30
0.0
  3
C0603_B_154
  1

  0
ENDBLK
  5
8F0
  8
0
  0
BLOCK
  8
0
  2
C0603_B_155
 70
     0
 10
0.0
 20
0.0
 30
0.0
  3
C0603_B_155
  1

  0
ENDBLK
  5
8F4
  8
0
  0
BLOCK
  8
0
  2
C0603_156
 70
     0
 10
0.0
 20
0.0
 30
0.0
  3
C0603_156
  1

  0
LINE
  5
8F9
  8
TOPSOLDER
 10
-0.0477165
 20
0.019685
 30
0.0
 11
-0.0477165
 21
-0.019685
 31
0.0
  0
LINE
  5
8FA
  8
TOPSOLDER
 10
-0.0477165
 20
-0.019685
 30
0.0
 11
-0.0122835
 21
-0.019685
 31
0.0
  0
LINE
  5
8FB
  8
TOPSOLDER
 10
-0.0122835
 20
-0.019685
 30
0.0
 11
-0.0122835
 21
0.019685
 31
0.0
  0
LINE
  5
8FC
  8
TOPSOLDER
 10
-0.0122835
 20
0.019685
 30
0.0
 11
-0.0477165
 21
0.019685
 31
0.0
  0
LINE
  5
8FD
  8
TOPSOLDER
 10
0.0122835
 20
0.019685
 30
0.0
 11
0.0122835
 21
-0.019685
 31
0.0
  0
LINE
  5
8FE
  8
TOPSOLDER
 10
0.0122835
 20
-0.019685
 30
0.0
 11
0.0477165
 21
-0.019685
 31
0.0
  0
LINE
  5
8FF
  8
TOPSOLDER
 10
0.0477165
 20
-0.019685
 30
0.0
 11
0.0477165
 21
0.019685
 31
0.0
  0
LINE
  5
900
  8
TOPSOLDER
 10
0.0477165
 20
0.019685
 30
0.0
 11
0.0122835
 21
0.019685
 31
0.0
  0
ENDBLK
  5
8F8
  8
0
  0
BLOCK
  8
0
  2
C0603_157
 70
     0
 10
0.0
 20
0.0
 30
0.0
  3
C0603_157
  1

  0
LINE
  5
905
  8
TOPSOLDER
 10
0.0477165
 20
-0.019685
 30
0.0
 11
0.0477165
 21
0.019685
 31
0.0
  0
LINE
  5
906
  8
TOPSOLDER
 10
0.0477165
 20
0.019685
 30
0.0
 11
0.0122835
 21
0.019685
 31
0.0
  0
LINE
  5
907
  8
TOPSOLDER
 10
0.0122835
 20
0.019685
 30
0.0
 11
0.0122835
 21
-0.019685
 31
0.0
  0
LINE
  5
908
  8
TOPSOLDER
 10
0.0122835
 20
-0.019685
 30
0.0
 11
0.0477165
 21
-0.019685
 31
0.0
  0
LINE
  5
909
  8
TOPSOLDER
 10
-0.0122835
 20
-0.019685
 30
0.0
 11
-0.0122835
 21
0.019685
 31
0.0
  0
LINE
  5
90A
  8
TOPSOLDER
 10
-0.0122835
 20
0.019685
 30
0.0
 11
-0.0477165
 21
0.019685
 31
0.0
  0
LINE
  5
90B
  8
TOPSOLDER
 10
-0.0477165
 20
0.019685
 30
0.0
 11
-0.0477165
 21
-0.019685
 31
0.0
  0
LINE
  5
90C
  8
TOPSOLDER
 10
-0.0477165
 20
-0.019685
 30
0.0
 11
-0.0122835
 21
-0.019685
 31
0.0
  0
ENDBLK
  5
904
  8
0
  0
BLOCK
  8
0
  2
TAJA_B_158
 70
     0
 10
0.0
 20
0.0
 30
0.0
  3
TAJA_B_158
  1

  0
ENDBLK
  5
910
  8
0
  0
BLOCK
  8
0
  2
R0603_159
 70
     0
 10
0.0
 20
0.0
 30
0.0
  3
R0603_159
  1

  0
LINE
  5
915
  8
TOPSOLDER
 10
0.0477165
 20
-0.019685
 30
0.0
 11
0.0477165
 21
0.019685
 31
0.0
  0
LINE
  5
916
  8
TOPSOLDER
 10
0.0477165
 20
0.019685
 30
0.0
 11
0.0122835
 21
0.019685
 31
0.0
  0
LINE
  5
917
  8
TOPSOLDER
 10
0.0122835
 20
0.019685
 30
0.0
 11
0.0122835
 21
-0.019685
 31
0.0
  0
LINE
  5
918
  8
TOPSOLDER
 10
0.0122835
 20
-0.019685
 30
0.0
 11
0.0477165
 21
-0.019685
 31
0.0
  0
LINE
  5
919
  8
TOPSOLDER
 10
-0.0122835
 20
-0.019685
 30
0.0
 11
-0.0122835
 21
0.019685
 31
0.0
  0
LINE
  5
91A
  8
TOPSOLDER
 10
-0.0122835
 20
0.019685
 30
0.0
 11
-0.0477165
 21
0.019685
 31
0.0
  0
LINE
  5
91B
  8
TOPSOLDER
 10
-0.0477165
 20
0.019685
 30
0.0
 11
-0.0477165
 21
-0.019685
 31
0.0
  0
LINE
  5
91C
  8
TOPSOLDER
 10
-0.0477165
 20
-0.019685
 30
0.0
 11
-0.0122835
 21
-0.019685
 31
0.0
  0
ENDBLK
  5
914
  8
0
  0
BLOCK
  8
0
  2
R0603_160
 70
     0
 10
0.0
 20
0.0
 30
0.0
  3
R0603_160
  1

  0
LINE
  5
921
  8
TOPSOLDER
 10
0.0477165
 20
-0.019685
 30
0.0
 11
0.0477165
 21
0.019685
 31
0.0
  0
LINE
  5
922
  8
TOPSOLDER
 10
0.0477165
 20
0.019685
 30
0.0
 11
0.0122835
 21
0.019685
 31
0.0
  0
LINE
  5
923
  8
TOPSOLDER
 10
0.0122835
 20
0.019685
 30
0.0
 11
0.0122835
 21
-0.019685
 31
0.0
  0
LINE
  5
924
  8
TOPSOLDER
 10
0.0122835
 20
-0.019685
 30
0.0
 11
0.0477165
 21
-0.019685
 31
0.0
  0
LINE
  5
925
  8
TOPSOLDER
 10
-0.0122835
 20
-0.019685
 30
0.0
 11
-0.0122835
 21
0.019685
 31
0.0
  0
LINE
  5
926
  8
TOPSOLDER
 10
-0.0122835
 20
0.019685
 30
0.0
 11
-0.0477165
 21
0.019685
 31
0.0
  0
LINE
  5
927
  8
TOPSOLDER
 10
-0.0477165
 20
0.019685
 30
0.0
 11
-0.0477165
 21
-0.019685
 31
0.0
  0
LINE
  5
928
  8
TOPSOLDER
 10
-0.0477165
 20
-0.019685
 30
0.0
 11
-0.0122835
 21
-0.019685
 31
0.0
  0
ENDBLK
  5
920
  8
0
  0
BLOCK
  8
0
  2
R0603_161
 70
     0
 10
0.0
 20
0.0
 30
0.0
  3
R0603_161
  1

  0
LINE
  5
92D
  8
TOPSOLDER
 10
0.0477165
 20
-0.019685
 30
0.0
 11
0.0477165
 21
0.019685
 31
0.0
  0
LINE
  5
92E
  8
TOPSOLDER
 10
0.0477165
 20
0.019685
 30
0.0
 11
0.0122835
 21
0.019685
 31
0.0
  0
LINE
  5
92F
  8
TOPSOLDER
 10
0.0122835
 20
0.019685
 30
0.0
 11
0.0122835
 21
-0.019685
 31
0.0
  0
LINE
  5
930
  8
TOPSOLDER
 10
0.0122835
 20
-0.019685
 30
0.0
 11
0.0477165
 21
-0.019685
 31
0.0
  0
LINE
  5
931
  8
TOPSOLDER
 10
-0.0122835
 20
-0.019685
 30
0.0
 11
-0.0122835
 21
0.019685
 31
0.0
  0
LINE
  5
932
  8
TOPSOLDER
 10
-0.0122835
 20
0.019685
 30
0.0
 11
-0.0477165
 21
0.019685
 31
0.0
  0
LINE
  5
933
  8
TOPSOLDER
 10
-0.0477165
 20
0.019685
 30
0.0
 11
-0.0477165
 21
-0.019685
 31
0.0
  0
LINE
  5
934
  8
TOPSOLDER
 10
-0.0477165
 20
-0.019685
 30
0.0
 11
-0.0122835
 21
-0.019685
 31
0.0
  0
ENDBLK
  5
92C
  8
0
  0
BLOCK
  8
0
  2
TAJA_162
 70
     0
 10
0.0
 20
0.0
 30
0.0
  3
TAJA_162
  1

  0
LINE
  5
939
  8
TOPSOLDER
 10
-0.0255905
 20
0.0315355
 30
0.0
 11
0.0255905
 21
0.0315355
 31
0.0
  0
LINE
  5
93A
  8
TOPSOLDER
 10
0.0255905
 20
0.0315355
 30
0.0
 11
0.0255905
 21
0.0984645
 31
0.0
  0
LINE
  5
93B
  8
TOPSOLDER
 10
0.0255905
 20
0.0984645
 30
0.0
 11
-0.0255905
 21
0.0984645
 31
0.0
  0
LINE
  5
93C
  8
TOPSOLDER
 10
-0.0255905
 20
0.0984645
 30
0.0
 11
-0.0255905
 21
0.0315355
 31
0.0
  0
LINE
  5
93D
  8
TOPSOLDER
 10
-0.0255905
 20
-0.0984645
 30
0.0
 11
0.0255905
 21
-0.0984645
 31
0.0
  0
LINE
  5
93E
  8
TOPSOLDER
 10
0.0255905
 20
-0.0984645
 30
0.0
 11
0.0255905
 21
-0.0315355
 31
0.0
  0
LINE
  5
93F
  8
TOPSOLDER
 10
0.0255905
 20
-0.0315355
 30
0.0
 11
-0.0255905
 21
-0.0315355
 31
0.0
  0
LINE
  5
940
  8
TOPSOLDER
 10
-0.0255905
 20
-0.0315355
 30
0.0
 11
-0.0255905
 21
-0.0984645
 31
0.0
  0
ENDBLK
  5
938
  8
0
  0
BLOCK
  8
0
  2
VFBGA128_1_163
 70
     0
 10
0.0
 20
0.0
 30
0.0
  3
VFBGA128_1_163
  1

  0
CIRCLE
  5
945
  8
TOPSOLDER
 10
-0.0590551
 20
0.1968504
 30
0.0
 40
0.00688975
  0
CIRCLE
  5
946
  8
TOPSOLDER
 10
-0.0787401
 20
0.1968504
 30
0.0
 40
0.00688975
  0
CIRCLE
  5
947
  8
TOPSOLDER
 10
-0.0984252
 20
0.1968504
 30
0.0
 40
0.00688975
  0
CIRCLE
  5
948
  8
TOPSOLDER
 10
-0.1181102
 20
0.1968504
 30
0.0
 40
0.00688975
  0
CIRCLE
  5
949
  8
TOPSOLDER
 10
-0.1377952
 20
0.1968504
 30
0.0
 40
0.00688975
  0
CIRCLE
  5
94A
  8
TOPSOLDER
 10
-0.1574803
 20
0.1968504
 30
0.0
 40
0.00688975
  0
CIRCLE
  5
94B
  8
TOPSOLDER
 10
-0.1771653
 20
0.1968504
 30
0.0
 40
0.00688975
  0
CIRCLE
  5
94C
  8
TOPSOLDER
 10
0.0
 20
0.0
 30
0.0
 40
0.00688975
  0
CIRCLE
  5
94D
  8
TOPSOLDER
 10
-0.019685
 20
0.0
 30
0.0
 40
0.00688975
  0
CIRCLE
  5
94E
  8
TOPSOLDER
 10
-0.03937
 20
0.0
 30
0.0
 40
0.00688975
  0
CIRCLE
  5
94F
  8
TOPSOLDER
 10
-0.0590551
 20
0.0
 30
0.0
 40
0.00688975
  0
CIRCLE
  5
950
  8
TOPSOLDER
 10
-0.0787401
 20
0.0
 30
0.0
 40
0.00688975
  0
CIRCLE
  5
951
  8
TOPSOLDER
 10
-0.0984252
 20
0.0
 30
0.0
 40
0.00688975
  0
CIRCLE
  5
952
  8
TOPSOLDER
 10
-0.1181102
 20
0.0
 30
0.0
 40
0.00688975
  0
CIRCLE
  5
953
  8
TOPSOLDER
 10
-0.1377952
 20
0.0
 30
0.0
 40
0.00688975
  0
CIRCLE
  5
954
  8
TOPSOLDER
 10
-0.1574803
 20
0.0
 30
0.0
 40
0.00688975
  0
CIRCLE
  5
955
  8
TOPSOLDER
 10
-0.1771653
 20
0.0
 30
0.0
 40
0.00688975
  0
CIRCLE
  5
956
  8
TOPSOLDER
 10
-0.1968504
 20
0.0
 30
0.0
 40
0.00688975
  0
CIRCLE
  5
957
  8
TOPSOLDER
 10
-0.2165354
 20
0.0
 30
0.0
 40
0.00688975
  0
CIRCLE
  5
958
  8
TOPSOLDER
 10
-0.2362204
 20
0.0
 30
0.0
 40
0.00688975
  0
CIRCLE
  5
959
  8
TOPSOLDER
 10
0.0
 20
0.019685
 30
0.0
 40
0.00688975
  0
CIRCLE
  5
95A
  8
TOPSOLDER
 10
-0.019685
 20
0.019685
 30
0.0
 40
0.00688975
  0
CIRCLE
  5
95B
  8
TOPSOLDER
 10
-0.03937
 20
0.019685
 30
0.0
 40
0.00688975
  0
CIRCLE
  5
95C
  8
TOPSOLDER
 10
-0.0590551
 20
0.019685
 30
0.0
 40
0.00688975
  0
CIRCLE
  5
95D
  8
TOPSOLDER
 10
-0.0787401
 20
0.019685
 30
0.0
 40
0.00688975
  0
CIRCLE
  5
95E
  8
TOPSOLDER
 10
-0.0984252
 20
0.019685
 30
0.0
 40
0.00688975
  0
CIRCLE
  5
95F
  8
TOPSOLDER
 10
-0.1181102
 20
0.019685
 30
0.0
 40
0.00688975
  0
CIRCLE
  5
960
  8
TOPSOLDER
 10
-0.1377952
 20
0.019685
 30
0.0
 40
0.00688975
  0
CIRCLE
  5
961
  8
TOPSOLDER
 10
-0.1574803
 20
0.019685
 30
0.0
 40
0.00688975
  0
CIRCLE
  5
962
  8
TOPSOLDER
 10
-0.1771653
 20
0.019685
 30
0.0
 40
0.00688975
  0
CIRCLE
  5
963
  8
TOPSOLDER
 10
-0.1968504
 20
0.019685
 30
0.0
 40
0.00688975
  0
CIRCLE
  5
964
  8
TOPSOLDER
 10
-0.2165354
 20
0.019685
 30
0.0
 40
0.00688975
  0
CIRCLE
  5
965
  8
TOPSOLDER
 10
-0.2362204
 20
0.019685
 30
0.0
 40
0.00688975
  0
CIRCLE
  5
966
  8
TOPSOLDER
 10
0.0
 20
0.03937
 30
0.0
 40
0.00688975
  0
CIRCLE
  5
967
  8
TOPSOLDER
 10
-0.019685
 20
0.03937
 30
0.0
 40
0.00688975
  0
CIRCLE
  5
968
  8
TOPSOLDER
 10
-0.03937
 20
0.03937
 30
0.0
 40
0.00688975
  0
CIRCLE
  5
969
  8
TOPSOLDER
 10
-0.0590551
 20
0.03937
 30
0.0
 40
0.00688975
  0
CIRCLE
  5
96A
  8
TOPSOLDER
 10
-0.0787401
 20
0.03937
 30
0.0
 40
0.00688975
  0
CIRCLE
  5
96B
  8
TOPSOLDER
 10
-0.0984252
 20
0.03937
 30
0.0
 40
0.00688975
  0
CIRCLE
  5
96C
  8
TOPSOLDER
 10
-0.1181102
 20
0.03937
 30
0.0
 40
0.00688975
  0
CIRCLE
  5
96D
  8
TOPSOLDER
 10
-0.1377952
 20
0.03937
 30
0.0
 40
0.00688975
  0
CIRCLE
  5
96E
  8
TOPSOLDER
 10
-0.1574803
 20
0.03937
 30
0.0
 40
0.00688975
  0
CIRCLE
  5
96F
  8
TOPSOLDER
 10
-0.1771653
 20
0.03937
 30
0.0
 40
0.00688975
  0
CIRCLE
  5
970
  8
TOPSOLDER
 10
-0.1968504
 20
0.03937
 30
0.0
 40
0.00688975
  0
CIRCLE
  5
971
  8
TOPSOLDER
 10
-0.2165354
 20
0.03937
 30
0.0
 40
0.00688975
  0
CIRCLE
  5
972
  8
TOPSOLDER
 10
-0.2362204
 20
0.03937
 30
0.0
 40
0.00688975
  0
CIRCLE
  5
973
  8
TOPSOLDER
 10
0.0
 20
0.0590551
 30
0.0
 40
0.00688975
  0
CIRCLE
  5
974
  8
TOPSOLDER
 10
-0.019685
 20
0.0590551
 30
0.0
 40
0.00688975
  0
CIRCLE
  5
975
  8
TOPSOLDER
 10
-0.03937
 20
0.0590551
 30
0.0
 40
0.00688975
  0
CIRCLE
  5
976
  8
TOPSOLDER
 10
-0.1968504
 20
0.0590551
 30
0.0
 40
0.00688975
  0
CIRCLE
  5
977
  8
TOPSOLDER
 10
-0.2165354
 20
0.0590551
 30
0.0
 40
0.00688975
  0
CIRCLE
  5
978
  8
TOPSOLDER
 10
-0.2362204
 20
0.0590551
 30
0.0
 40
0.00688975
  0
CIRCLE
  5
979
  8
TOPSOLDER
 10
0.0
 20
0.0787401
 30
0.0
 40
0.00688975
  0
CIRCLE
  5
97A
  8
TOPSOLDER
 10
-0.019685
 20
0.0787401
 30
0.0
 40
0.00688975
  0
CIRCLE
  5
97B
  8
TOPSOLDER
 10
-0.03937
 20
0.0787401
 30
0.0
 40
0.00688975
  0
CIRCLE
  5
97C
  8
TOPSOLDER
 10
-0.1968504
 20
0.0787401
 30
0.0
 40
0.00688975
  0
CIRCLE
  5
97D
  8
TOPSOLDER
 10
-0.2165354
 20
0.0787401
 30
0.0
 40
0.00688975
  0
CIRCLE
  5
97E
  8
TOPSOLDER
 10
-0.2362204
 20
0.0787401
 30
0.0
 40
0.00688975
  0
CIRCLE
  5
97F
  8
TOPSOLDER
 10
0.0
 20
0.0984252
 30
0.0
 40
0.00688975
  0
CIRCLE
  5
980
  8
TOPSOLDER
 10
-0.019685
 20
0.0984252
 30
0.0
 40
0.00688975
  0
CIRCLE
  5
981
  8
TOPSOLDER
 10
-0.03937
 20
0.0984252
 30
0.0
 40
0.00688975
  0
CIRCLE
  5
982
  8
TOPSOLDER
 10
-0.0984252
 20
0.0984252
 30
0.0
 40
0.00688975
  0
CIRCLE
  5
983
  8
TOPSOLDER
 10
-0.1181102
 20
0.0984252
 30
0.0
 40
0.00688975
  0
CIRCLE
  5
984
  8
TOPSOLDER
 10
-0.1377952
 20
0.0984252
 30
0.0
 40
0.00688975
  0
CIRCLE
  5
985
  8
TOPSOLDER
 10
-0.1968504
 20
0.0984252
 30
0.0
 40
0.00688975
  0
CIRCLE
  5
986
  8
TOPSOLDER
 10
-0.2165354
 20
0.0984252
 30
0.0
 40
0.00688975
  0
CIRCLE
  5
987
  8
TOPSOLDER
 10
-0.2362204
 20
0.0984252
 30
0.0
 40
0.00688975
  0
CIRCLE
  5
988
  8
TOPSOLDER
 10
0.0
 20
0.1181102
 30
0.0
 40
0.00688975
  0
CIRCLE
  5
989
  8
TOPSOLDER
 10
-0.019685
 20
0.1181102
 30
0.0
 40
0.00688975
  0
CIRCLE
  5
98A
  8
TOPSOLDER
 10
-0.03937
 20
0.1181102
 30
0.0
 40
0.00688975
  0
CIRCLE
  5
98B
  8
TOPSOLDER
 10
-0.0984252
 20
0.1181102
 30
0.0
 40
0.00688975
  0
CIRCLE
  5
98C
  8
TOPSOLDER
 10
-0.1377952
 20
0.1181102
 30
0.0
 40
0.00688975
  0
CIRCLE
  5
98D
  8
TOPSOLDER
 10
-0.1968504
 20
0.1181102
 30
0.0
 40
0.00688975
  0
CIRCLE
  5
98E
  8
TOPSOLDER
 10
-0.2165354
 20
0.1181102
 30
0.0
 40
0.00688975
  0
CIRCLE
  5
98F
  8
TOPSOLDER
 10
-0.2362204
 20
0.1181102
 30
0.0
 40
0.00688975
  0
CIRCLE
  5
990
  8
TOPSOLDER
 10
0.0
 20
0.1377952
 30
0.0
 40
0.00688975
  0
CIRCLE
  5
991
  8
TOPSOLDER
 10
-0.019685
 20
0.1377952
 30
0.0
 40
0.00688975
  0
CIRCLE
  5
992
  8
TOPSOLDER
 10
-0.03937
 20
0.1377952
 30
0.0
 40
0.00688975
  0
CIRCLE
  5
993
  8
TOPSOLDER
 10
-0.0984252
 20
0.1377952
 30
0.0
 40
0.00688975
  0
CIRCLE
  5
994
  8
TOPSOLDER
 10
-0.1181102
 20
0.1377952
 30
0.0
 40
0.00688975
  0
CIRCLE
  5
995
  8
TOPSOLDER
 10
-0.1377952
 20
0.1377952
 30
0.0
 40
0.00688975
  0
CIRCLE
  5
996
  8
TOPSOLDER
 10
-0.1968504
 20
0.1377952
 30
0.0
 40
0.00688975
  0
CIRCLE
  5
997
  8
TOPSOLDER
 10
-0.2165354
 20
0.1377952
 30
0.0
 40
0.00688975
  0
CIRCLE
  5
998
  8
TOPSOLDER
 10
-0.2362204
 20
0.1377952
 30
0.0
 40
0.00688975
  0
CIRCLE
  5
999
  8
TOPSOLDER
 10
0.0
 20
0.1574803
 30
0.0
 40
0.00688975
  0
CIRCLE
  5
99A
  8
TOPSOLDER
 10
-0.019685
 20
0.1574803
 30
0.0
 40
0.00688975
  0
CIRCLE
  5
99B
  8
TOPSOLDER
 10
-0.03937
 20
0.1574803
 30
0.0
 40
0.00688975
  0
CIRCLE
  5
99C
  8
TOPSOLDER
 10
-0.1968504
 20
0.1574803
 30
0.0
 40
0.00688975
  0
CIRCLE
  5
99D
  8
TOPSOLDER
 10
-0.2165354
 20
0.1574803
 30
0.0
 40
0.00688975
  0
CIRCLE
  5
99E
  8
TOPSOLDER
 10
-0.2362204
 20
0.1574803
 30
0.0
 40
0.00688975
  0
CIRCLE
  5
99F
  8
TOPSOLDER
 10
0.0
 20
0.1771653
 30
0.0
 40
0.00688975
  0
CIRCLE
  5
9A0
  8
TOPSOLDER
 10
-0.019685
 20
0.1771653
 30
0.0
 40
0.00688975
  0
CIRCLE
  5
9A1
  8
TOPSOLDER
 10
-0.03937
 20
0.1771653
 30
0.0
 40
0.00688975
  0
CIRCLE
  5
9A2
  8
TOPSOLDER
 10
-0.1968504
 20
0.1771653
 30
0.0
 40
0.00688975
  0
CIRCLE
  5
9A3
  8
TOPSOLDER
 10
-0.2165354
 20
0.1771653
 30
0.0
 40
0.00688975
  0
CIRCLE
  5
9A4
  8
TOPSOLDER
 10
-0.2362204
 20
0.1771653
 30
0.0
 40
0.00688975
  0
CIRCLE
  5
9A5
  8
TOPSOLDER
 10
0.0
 20
0.1968504
 30
0.0
 40
0.00688975
  0
CIRCLE
  5
9A6
  8
TOPSOLDER
 10
-0.019685
 20
0.1968504
 30
0.0
 40
0.00688975
  0
CIRCLE
  5
9A7
  8
TOPSOLDER
 10
-0.03937
 20
0.1968504
 30
0.0
 40
0.00688975
  0
CIRCLE
  5
9A8
  8
TOPSOLDER
 10
-0.1968504
 20
0.1968504
 30
0.0
 40
0.00688975
  0
CIRCLE
  5
9A9
  8
TOPSOLDER
 10
-0.2165354
 20
0.1968504
 30
0.0
 40
0.00688975
  0
CIRCLE
  5
9AA
  8
TOPSOLDER
 10
-0.2362204
 20
0.1968504
 30
0.0
 40
0.00688975
  0
CIRCLE
  5
9AB
  8
TOPSOLDER
 10
0.0
 20
0.2165354
 30
0.0
 40
0.00688975
  0
CIRCLE
  5
9AC
  8
TOPSOLDER
 10
-0.019685
 20
0.2165354
 30
0.0
 40
0.00688975
  0
CIRCLE
  5
9AD
  8
TOPSOLDER
 10
-0.03937
 20
0.2165354
 30
0.0
 40
0.00688975
  0
CIRCLE
  5
9AE
  8
TOPSOLDER
 10
-0.0590551
 20
0.2165354
 30
0.0
 40
0.00688975
  0
CIRCLE
  5
9AF
  8
TOPSOLDER
 10
-0.0787401
 20
0.2165354
 30
0.0
 40
0.00688975
  0
CIRCLE
  5
9B0
  8
TOPSOLDER
 10
-0.0984252
 20
0.2165354
 30
0.0
 40
0.00688975
  0
CIRCLE
  5
9B1
  8
TOPSOLDER
 10
-0.1181102
 20
0.2165354
 30
0.0
 40
0.00688975
  0
CIRCLE
  5
9B2
  8
TOPSOLDER
 10
-0.1377952
 20
0.2165354
 30
0.0
 40
0.00688975
  0
CIRCLE
  5
9B3
  8
TOPSOLDER
 10
-0.1574803
 20
0.2165354
 30
0.0
 40
0.00688975
  0
CIRCLE
  5
9B4
  8
TOPSOLDER
 10
-0.1771653
 20
0.2165354
 30
0.0
 40
0.00688975
  0
CIRCLE
  5
9B5
  8
TOPSOLDER
 10
-0.1968504
 20
0.2165354
 30
0.0
 40
0.00688975
  0
CIRCLE
  5
9B6
  8
TOPSOLDER
 10
-0.2165354
 20
0.2165354
 30
0.0
 40
0.00688975
  0
CIRCLE
  5
9B7
  8
TOPSOLDER
 10
-0.2362204
 20
0.2165354
 30
0.0
 40
0.00688975
  0
CIRCLE
  5
9B8
  8
TOPSOLDER
 10
0.0
 20
0.2362204
 30
0.0
 40
0.00688975
  0
CIRCLE
  5
9B9
  8
TOPSOLDER
 10
-0.019685
 20
0.2362204
 30
0.0
 40
0.00688975
  0
CIRCLE
  5
9BA
  8
TOPSOLDER
 10
-0.03937
 20
0.2362204
 30
0.0
 40
0.00688975
  0
CIRCLE
  5
9BB
  8
TOPSOLDER
 10
-0.0590551
 20
0.2362204
 30
0.0
 40
0.00688975
  0
CIRCLE
  5
9BC
  8
TOPSOLDER
 10
-0.0787401
 20
0.2362204
 30
0.0
 40
0.00688975
  0
CIRCLE
  5
9BD
  8
TOPSOLDER
 10
-0.0984252
 20
0.2362204
 30
0.0
 40
0.00688975
  0
CIRCLE
  5
9BE
  8
TOPSOLDER
 10
-0.1181102
 20
0.2362204
 30
0.0
 40
0.00688975
  0
CIRCLE
  5
9BF
  8
TOPSOLDER
 10
-0.1377952
 20
0.2362204
 30
0.0
 40
0.00688975
  0
CIRCLE
  5
9C0
  8
TOPSOLDER
 10
-0.1574803
 20
0.2362204
 30
0.0
 40
0.00688975
  0
CIRCLE
  5
9C1
  8
TOPSOLDER
 10
-0.1771653
 20
0.2362204
 30
0.0
 40
0.00688975
  0
CIRCLE
  5
9C2
  8
TOPSOLDER
 10
-0.1968504
 20
0.2362204
 30
0.0
 40
0.00688975
  0
CIRCLE
  5
9C3
  8
TOPSOLDER
 10
-0.2165354
 20
0.2362204
 30
0.0
 40
0.00688975
  0
CIRCLE
  5
9C4
  8
TOPSOLDER
 10
-0.2362204
 20
0.2362204
 30
0.0
 40
0.00688975
  0
ENDBLK
  5
944
  8
0
  0
BLOCK
  8
0
  2
SOT323_164
 70
     0
 10
0.0
 20
0.0
 30
0.0
  3
SOT323_164
  1

  0
LINE
  5
9C9
  8
TOPSOLDER
 10
-0.0108267
 20
0.0482284
 30
0.0
 11
-0.0108267
 21
0.0187008
 31
0.0
  0
LINE
  5
9CA
  8
TOPSOLDER
 10
-0.0108267
 20
0.0187008
 30
0.0
 11
0.0108267
 21
0.0187008
 31
0.0
  0
LINE
  5
9CB
  8
TOPSOLDER
 10
0.0108267
 20
0.0187008
 30
0.0
 11
0.0108267
 21
0.0482284
 31
0.0
  0
LINE
  5
9CC
  8
TOPSOLDER
 10
0.0108267
 20
0.0482284
 30
0.0
 11
-0.0108267
 21
0.0482284
 31
0.0
  0
LINE
  5
9CD
  8
TOPSOLDER
 10
0.0147639
 20
-0.0206693
 30
0.0
 11
0.0147639
 21
-0.0501969
 31
0.0
  0
LINE
  5
9CE
  8
TOPSOLDER
 10
0.0147639
 20
-0.0501969
 30
0.0
 11
0.0364173
 21
-0.0501969
 31
0.0
  0
LINE
  5
9CF
  8
TOPSOLDER
 10
0.0364173
 20
-0.0501969
 30
0.0
 11
0.0364173
 21
-0.0206693
 31
0.0
  0
LINE
  5
9D0
  8
TOPSOLDER
 10
0.0364173
 20
-0.0206693
 30
0.0
 11
0.0147639
 21
-0.0206693
 31
0.0
  0
LINE
  5
9D1
  8
TOPSOLDER
 10
-0.0364173
 20
-0.0206693
 30
0.0
 11
-0.0364173
 21
-0.0501969
 31
0.0
  0
LINE
  5
9D2
  8
TOPSOLDER
 10
-0.0364173
 20
-0.0501969
 30
0.0
 11
-0.0147639
 21
-0.0501969
 31
0.0
  0
LINE
  5
9D3
  8
TOPSOLDER
 10
-0.0147639
 20
-0.0501969
 30
0.0
 11
-0.0147639
 21
-0.0206693
 31
0.0
  0
LINE
  5
9D4
  8
TOPSOLDER
 10
-0.0147639
 20
-0.0206693
 30
0.0
 11
-0.0364173
 21
-0.0206693
 31
0.0
  0
ENDBLK
  5
9C8
  8
0
  0
BLOCK
  8
0
  2
TAJA_165
 70
     0
 10
0.0
 20
0.0
 30
0.0
  3
TAJA_165
  1

  0
LINE
  5
9D9
  8
TOPSOLDER
 10
-0.0255905
 20
0.0310315
 30
0.0
 11
0.0255905
 21
0.0310315
 31
0.0
  0
LINE
  5
9DA
  8
TOPSOLDER
 10
0.0255905
 20
0.0310315
 30
0.0
 11
0.0255905
 21
0.0989685
 31
0.0
  0
LINE
  5
9DB
  8
TOPSOLDER
 10
0.0255905
 20
0.0989685
 30
0.0
 11
-0.0255905
 21
0.0989685
 31
0.0
  0
LINE
  5
9DC
  8
TOPSOLDER
 10
-0.0255905
 20
0.0989685
 30
0.0
 11
-0.0255905
 21
0.0310315
 31
0.0
  0
LINE
  5
9DD
  8
TOPSOLDER
 10
-0.0255905
 20
-0.0984645
 30
0.0
 11
0.0255905
 21
-0.0984645
 31
0.0
  0
LINE
  5
9DE
  8
TOPSOLDER
 10
0.0255905
 20
-0.0984645
 30
0.0
 11
0.0255905
 21
-0.0315355
 31
0.0
  0
LINE
  5
9DF
  8
TOPSOLDER
 10
0.0255905
 20
-0.0315355
 30
0.0
 11
-0.0255905
 21
-0.0315355
 31
0.0
  0
LINE
  5
9E0
  8
TOPSOLDER
 10
-0.0255905
 20
-0.0315355
 30
0.0
 11
-0.0255905
 21
-0.0984645
 31
0.0
  0
ENDBLK
  5
9D8
  8
0
  0
BLOCK
  8
0
  2
R0402_166
 70
     0
 10
0.0
 20
0.0
 30
0.0
  3
R0402_166
  1

  0
LINE
  5
9E5
  8
TOPSOLDER
 10
0.0059055
 20
0.015748
 30
0.0
 11
0.0059055
 21
-0.015748
 31
0.0
  0
LINE
  5
9E6
  8
TOPSOLDER
 10
0.0059055
 20
-0.015748
 30
0.0
 11
0.0334645
 21
-0.015748
 31
0.0
  0
LINE
  5
9E7
  8
TOPSOLDER
 10
0.0334645
 20
-0.015748
 30
0.0
 11
0.0334645
 21
0.015748
 31
0.0
  0
LINE
  5
9E8
  8
TOPSOLDER
 10
0.0334645
 20
0.015748
 30
0.0
 11
0.0059055
 21
0.015748
 31
0.0
  0
LINE
  5
9E9
  8
TOPSOLDER
 10
-0.0334645
 20
0.015748
 30
0.0
 11
-0.0334645
 21
-0.015748
 31
0.0
  0
LINE
  5
9EA
  8
TOPSOLDER
 10
-0.0334645
 20
-0.015748
 30
0.0
 11
-0.0059055
 21
-0.015748
 31
0.0
  0
LINE
  5
9EB
  8
TOPSOLDER
 10
-0.0059055
 20
-0.015748
 30
0.0
 11
-0.0059055
 21
0.015748
 31
0.0
  0
LINE
  5
9EC
  8
TOPSOLDER
 10
-0.0059055
 20
0.015748
 30
0.0
 11
-0.0334645
 21
0.015748
 31
0.0
  0
ENDBLK
  5
9E4
  8
0
  0
BLOCK
  8
0
  2
PSH02_3W_UHLOVY__________0
 70
     0
 10
0.0
 20
0.0
 30
0.0
  3
PSH02_3W_UHLOVY__________0
  1

  0
LINE
  5
9F1
  8
TOPSOLDER
 10
-0.0364685
 20
0.0364685
 30
0.0
 11
-0.0364685
 21
-0.0364685
 31
0.0
  0
LINE
  5
9F2
  8
TOPSOLDER
 10
-0.0364685
 20
-0.0364685
 30
0.0
 11
0.0364685
 21
-0.0364685
 31
0.0
  0
LINE
  5
9F3
  8
TOPSOLDER
 10
0.0364685
 20
-0.0364685
 30
0.0
 11
0.0364685
 21
0.0364685
 31
0.0
  0
LINE
  5
9F4
  8
TOPSOLDER
 10
0.0364685
 20
0.0364685
 30
0.0
 11
-0.0364685
 21
0.0364685
 31
0.0
  0
CIRCLE
  5
9F5
  8
TOPSOLDER
 10
-0.1
 20
0.0
 30
0.0
 40
0.0364685
  0
CIRCLE
  5
9F6
  8
TOPSOLDER
 10
-0.2
 20
0.0
 30
0.0
 40
0.0364685
  0
ENDBLK
  5
9F0
  8
0
  0
BLOCK
  8
0
  2
R0603_168
 70
     0
 10
0.0
 20
0.0
 30
0.0
  3
R0603_168
  1

  0
LINE
  5
9FB
  8
TOPSOLDER
 10
0.0122835
 20
0.019685
 30
0.0
 11
0.0122835
 21
-0.019685
 31
0.0
  0
LINE
  5
9FC
  8
TOPSOLDER
 10
0.0122835
 20
-0.019685
 30
0.0
 11
0.0477165
 21
-0.019685
 31
0.0
  0
LINE
  5
9FD
  8
TOPSOLDER
 10
0.0477165
 20
-0.019685
 30
0.0
 11
0.0477165
 21
0.019685
 31
0.0
  0
LINE
  5
9FE
  8
TOPSOLDER
 10
0.0477165
 20
0.019685
 30
0.0
 11
0.0122835
 21
0.019685
 31
0.0
  0
LINE
  5
9FF
  8
TOPSOLDER
 10
-0.0477165
 20
0.019685
 30
0.0
 11
-0.0477165
 21
-0.019685
 31
0.0
  0
LINE
  5
A00
  8
TOPSOLDER
 10
-0.0477165
 20
-0.019685
 30
0.0
 11
-0.0122835
 21
-0.019685
 31
0.0
  0
LINE
  5
A01
  8
TOPSOLDER
 10
-0.0122835
 20
-0.019685
 30
0.0
 11
-0.0122835
 21
0.019685
 31
0.0
  0
LINE
  5
A02
  8
TOPSOLDER
 10
-0.0122835
 20
0.019685
 30
0.0
 11
-0.0477165
 21
0.019685
 31
0.0
  0
ENDBLK
  5
9FA
  8
0
  0
BLOCK
  8
0
  2
R1206_B_169
 70
     0
 10
0.0
 20
0.0
 30
0.0
  3
R1206_B_169
  1

  0
ENDBLK
  5
A06
  8
0
  0
BLOCK
  8
0
  2
R1206_B_170
 70
     0
 10
0.0
 20
0.0
 30
0.0
  3
R1206_B_170
  1

  0
ENDBLK
  5
A0A
  8
0
  0
BLOCK
  8
0
  2
R0603_B_171
 70
     0
 10
0.0
 20
0.0
 30
0.0
  3
R0603_B_171
  1

  0
ENDBLK
  5
A0E
  8
0
  0
BLOCK
  8
0
  2
R0603_B_172
 70
     0
 10
0.0
 20
0.0
 30
0.0
  3
R0603_B_172
  1

  0
ENDBLK
  5
A12
  8
0
  0
BLOCK
  8
0
  2
R0805_173
 70
     0
 10
0.0
 20
0.0
 30
0.0
  3
R0805_173
  1

  0
LINE
  5
A17
  8
TOPSOLDER
 10
-0.0669685
 20
0.0279685
 30
0.0
 11
-0.0669685
 21
-0.0279685
 31
0.0
  0
LINE
  5
A18
  8
TOPSOLDER
 10
-0.0669685
 20
-0.0279685
 30
0.0
 11
-0.0230315
 21
-0.0279685
 31
0.0
  0
LINE
  5
A19
  8
TOPSOLDER
 10
-0.0230315
 20
-0.0279685
 30
0.0
 11
-0.0230315
 21
0.0279685
 31
0.0
  0
LINE
  5
A1A
  8
TOPSOLDER
 10
-0.0230315
 20
0.0279685
 30
0.0
 11
-0.0669685
 21
0.0279685
 31
0.0
  0
LINE
  5
A1B
  8
TOPSOLDER
 10
0.0230315
 20
0.0279685
 30
0.0
 11
0.0230315
 21
-0.0279685
 31
0.0
  0
LINE
  5
A1C
  8
TOPSOLDER
 10
0.0230315
 20
-0.0279685
 30
0.0
 11
0.0669685
 21
-0.0279685
 31
0.0
  0
LINE
  5
A1D
  8
TOPSOLDER
 10
0.0669685
 20
-0.0279685
 30
0.0
 11
0.0669685
 21
0.0279685
 31
0.0
  0
LINE
  5
A1E
  8
TOPSOLDER
 10
0.0669685
 20
0.0279685
 30
0.0
 11
0.0230315
 21
0.0279685
 31
0.0
  0
ENDBLK
  5
A16
  8
0
  0
BLOCK
  8
0
  2
R0805_174
 70
     0
 10
0.0
 20
0.0
 30
0.0
  3
R0805_174
  1

  0
LINE
  5
A23
  8
TOPSOLDER
 10
0.0669685
 20
-0.0279685
 30
0.0
 11
0.0669685
 21
0.0279685
 31
0.0
  0
LINE
  5
A24
  8
TOPSOLDER
 10
0.0669685
 20
0.0279685
 30
0.0
 11
0.0230315
 21
0.0279685
 31
0.0
  0
LINE
  5
A25
  8
TOPSOLDER
 10
0.0230315
 20
0.0279685
 30
0.0
 11
0.0230315
 21
-0.0279685
 31
0.0
  0
LINE
  5
A26
  8
TOPSOLDER
 10
0.0230315
 20
-0.0279685
 30
0.0
 11
0.0669685
 21
-0.0279685
 31
0.0
  0
LINE
  5
A27
  8
TOPSOLDER
 10
-0.0230315
 20
-0.0279685
 30
0.0
 11
-0.0230315
 21
0.0279685
 31
0.0
  0
LINE
  5
A28
  8
TOPSOLDER
 10
-0.0230315
 20
0.0279685
 30
0.0
 11
-0.0669685
 21
0.0279685
 31
0.0
  0
LINE
  5
A29
  8
TOPSOLDER
 10
-0.0669685
 20
0.0279685
 30
0.0
 11
-0.0669685
 21
-0.0279685
 31
0.0
  0
LINE
  5
A2A
  8
TOPSOLDER
 10
-0.0669685
 20
-0.0279685
 30
0.0
 11
-0.0230315
 21
-0.0279685
 31
0.0
  0
ENDBLK
  5
A22
  8
0
  0
BLOCK
  8
0
  2
SDR0604_1_175
 70
     0
 10
0.0
 20
0.0
 30
0.0
  3
SDR0604_1_175
  1

  0
LINE
  5
A2F
  8
TOPSOLDER
 10
-0.1043307
 20
-0.1220473
 30
0.0
 11
0.1082677
 21
-0.1220473
 31
0.0
  0
LINE
  5
A30
  8
TOPSOLDER
 10
0.1082677
 20
-0.1220473
 30
0.0
 11
0.1082677
 21
-0.0354331
 31
0.0
  0
LINE
  5
A31
  8
TOPSOLDER
 10
0.1082677
 20
-0.0354331
 30
0.0
 11
-0.1043307
 21
-0.0354331
 31
0.0
  0
LINE
  5
A32
  8
TOPSOLDER
 10
-0.1043307
 20
-0.0354331
 30
0.0
 11
-0.1043307
 21
-0.1220473
 31
0.0
  0
LINE
  5
A33
  8
TOPSOLDER
 10
-0.1062992
 20
0.0354331
 30
0.0
 11
0.1062992
 21
0.0354331
 31
0.0
  0
LINE
  5
A34
  8
TOPSOLDER
 10
0.1062992
 20
0.0354331
 30
0.0
 11
0.1062992
 21
0.1220473
 31
0.0
  0
LINE
  5
A35
  8
TOPSOLDER
 10
0.1062992
 20
0.1220473
 30
0.0
 11
-0.1062992
 21
0.1220473
 31
0.0
  0
LINE
  5
A36
  8
TOPSOLDER
 10
-0.1062992
 20
0.1220473
 30
0.0
 11
-0.1062992
 21
0.0354331
 31
0.0
  0
ENDBLK
  5
A2E
  8
0
  0
BLOCK
  8
0
  2
C0603_B_176
 70
     0
 10
0.0
 20
0.0
 30
0.0
  3
C0603_B_176
  1

  0
ENDBLK
  5
A3A
  8
0
  0
BLOCK
  8
0
  2
LQFP_64_B_177
 70
     0
 10
0.0
 20
0.0
 30
0.0
  3
LQFP_64_B_177
  1

  0
ENDBLK
  5
A3E
  8
0
  0
BLOCK
  8
0
  2
C0603_B_178
 70
     0
 10
0.0
 20
0.0
 30
0.0
  3
C0603_B_178
  1

  0
ENDBLK
  5
A42
  8
0
  0
BLOCK
  8
0
  2
R0603_B_179
 70
     0
 10
0.0
 20
0.0
 30
0.0
  3
R0603_B_179
  1

  0
ENDBLK
  5
A46
  8
0
  0
BLOCK
  8
0
  2
R0603_180
 70
     0
 10
0.0
 20
0.0
 30
0.0
  3
R0603_180
  1

  0
LINE
  5
A4B
  8
TOPSOLDER
 10
0.0122835
 20
0.019685
 30
0.0
 11
0.0122835
 21
-0.019685
 31
0.0
  0
LINE
  5
A4C
  8
TOPSOLDER
 10
0.0122835
 20
-0.019685
 30
0.0
 11
0.0477165
 21
-0.019685
 31
0.0
  0
LINE
  5
A4D
  8
TOPSOLDER
 10
0.0477165
 20
-0.019685
 30
0.0
 11
0.0477165
 21
0.019685
 31
0.0
  0
LINE
  5
A4E
  8
TOPSOLDER
 10
0.0477165
 20
0.019685
 30
0.0
 11
0.0122835
 21
0.019685
 31
0.0
  0
LINE
  5
A4F
  8
TOPSOLDER
 10
-0.0472441
 20
0.019685
 30
0.0
 11
-0.0472441
 21
-0.019685
 31
0.0
  0
LINE
  5
A50
  8
TOPSOLDER
 10
-0.0472441
 20
-0.019685
 30
0.0
 11
-0.0118111
 21
-0.019685
 31
0.0
  0
LINE
  5
A51
  8
TOPSOLDER
 10
-0.0118111
 20
-0.019685
 30
0.0
 11
-0.0118111
 21
0.019685
 31
0.0
  0
LINE
  5
A52
  8
TOPSOLDER
 10
-0.0118111
 20
0.019685
 30
0.0
 11
-0.0472441
 21
0.019685
 31
0.0
  0
ENDBLK
  5
A4A
  8
0
  0
BLOCK
  8
0
  2
R0603_181
 70
     0
 10
0.0
 20
0.0
 30
0.0
  3
R0603_181
  1

  0
LINE
  5
A57
  8
TOPSOLDER
 10
0.0477165
 20
-0.019685
 30
0.0
 11
0.0477165
 21
0.019685
 31
0.0
  0
LINE
  5
A58
  8
TOPSOLDER
 10
0.0477165
 20
0.019685
 30
0.0
 11
0.0122835
 21
0.019685
 31
0.0
  0
LINE
  5
A59
  8
TOPSOLDER
 10
0.0122835
 20
0.019685
 30
0.0
 11
0.0122835
 21
-0.019685
 31
0.0
  0
LINE
  5
A5A
  8
TOPSOLDER
 10
0.0122835
 20
-0.019685
 30
0.0
 11
0.0477165
 21
-0.019685
 31
0.0
  0
LINE
  5
A5B
  8
TOPSOLDER
 10
-0.0122835
 20
-0.019685
 30
0.0
 11
-0.0122835
 21
0.019685
 31
0.0
  0
LINE
  5
A5C
  8
TOPSOLDER
 10
-0.0122835
 20
0.019685
 30
0.0
 11
-0.0477165
 21
0.019685
 31
0.0
  0
LINE
  5
A5D
  8
TOPSOLDER
 10
-0.0477165
 20
0.019685
 30
0.0
 11
-0.0477165
 21
-0.019685
 31
0.0
  0
LINE
  5
A5E
  8
TOPSOLDER
 10
-0.0477165
 20
-0.019685
 30
0.0
 11
-0.0122835
 21
-0.019685
 31
0.0
  0
ENDBLK
  5
A56
  8
0
  0
BLOCK
  8
0
  2
R0603_B_182
 70
     0
 10
0.0
 20
0.0
 30
0.0
  3
R0603_B_182
  1

  0
ENDBLK
  5
A62
  8
0
  0
BLOCK
  8
0
  2
R0603_183
 70
     0
 10
0.0
 20
0.0
 30
0.0
  3
R0603_183
  1

  0
LINE
  5
A67
  8
TOPSOLDER
 10
0.0122835
 20
0.019685
 30
0.0
 11
0.0122835
 21
-0.019685
 31
0.0
  0
LINE
  5
A68
  8
TOPSOLDER
 10
0.0122835
 20
-0.019685
 30
0.0
 11
0.0477165
 21
-0.019685
 31
0.0
  0
LINE
  5
A69
  8
TOPSOLDER
 10
0.0477165
 20
-0.019685
 30
0.0
 11
0.0477165
 21
0.019685
 31
0.0
  0
LINE
  5
A6A
  8
TOPSOLDER
 10
0.0477165
 20
0.019685
 30
0.0
 11
0.0122835
 21
0.019685
 31
0.0
  0
LINE
  5
A6B
  8
TOPSOLDER
 10
-0.0472441
 20
0.019685
 30
0.0
 11
-0.0472441
 21
-0.019685
 31
0.0
  0
LINE
  5
A6C
  8
TOPSOLDER
 10
-0.0472441
 20
-0.019685
 30
0.0
 11
-0.0118111
 21
-0.019685
 31
0.0
  0
LINE
  5
A6D
  8
TOPSOLDER
 10
-0.0118111
 20
-0.019685
 30
0.0
 11
-0.0118111
 21
0.019685
 31
0.0
  0
LINE
  5
A6E
  8
TOPSOLDER
 10
-0.0118111
 20
0.019685
 30
0.0
 11
-0.0472441
 21
0.019685
 31
0.0
  0
ENDBLK
  5
A66
  8
0
  0
BLOCK
  8
0
  2
R0603_184
 70
     0
 10
0.0
 20
0.0
 30
0.0
  3
R0603_184
  1

  0
LINE
  5
A73
  8
TOPSOLDER
 10
-0.0477165
 20
0.019685
 30
0.0
 11
-0.0477165
 21
-0.019685
 31
0.0
  0
LINE
  5
A74
  8
TOPSOLDER
 10
-0.0477165
 20
-0.019685
 30
0.0
 11
-0.0122835
 21
-0.019685
 31
0.0
  0
LINE
  5
A75
  8
TOPSOLDER
 10
-0.0122835
 20
-0.019685
 30
0.0
 11
-0.0122835
 21
0.019685
 31
0.0
  0
LINE
  5
A76
  8
TOPSOLDER
 10
-0.0122835
 20
0.019685
 30
0.0
 11
-0.0477165
 21
0.019685
 31
0.0
  0
LINE
  5
A77
  8
TOPSOLDER
 10
0.0122835
 20
0.019685
 30
0.0
 11
0.0122835
 21
-0.019685
 31
0.0
  0
LINE
  5
A78
  8
TOPSOLDER
 10
0.0122835
 20
-0.019685
 30
0.0
 11
0.0477165
 21
-0.019685
 31
0.0
  0
LINE
  5
A79
  8
TOPSOLDER
 10
0.0477165
 20
-0.019685
 30
0.0
 11
0.0477165
 21
0.019685
 31
0.0
  0
LINE
  5
A7A
  8
TOPSOLDER
 10
0.0477165
 20
0.019685
 30
0.0
 11
0.0122835
 21
0.019685
 31
0.0
  0
ENDBLK
  5
A72
  8
0
  0
BLOCK
  8
0
  2
R0603_185
 70
     0
 10
0.0
 20
0.0
 30
0.0
  3
R0603_185
  1

  0
LINE
  5
A7F
  8
TOPSOLDER
 10
-0.0122835
 20
-0.019685
 30
0.0
 11
-0.0122835
 21
0.019685
 31
0.0
  0
LINE
  5
A80
  8
TOPSOLDER
 10
-0.0122835
 20
0.019685
 30
0.0
 11
-0.0477165
 21
0.019685
 31
0.0
  0
LINE
  5
A81
  8
TOPSOLDER
 10
-0.0477165
 20
0.019685
 30
0.0
 11
-0.0477165
 21
-0.019685
 31
0.0
  0
LINE
  5
A82
  8
TOPSOLDER
 10
-0.0477165
 20
-0.019685
 30
0.0
 11
-0.0122835
 21
-0.019685
 31
0.0
  0
LINE
  5
A83
  8
TOPSOLDER
 10
0.0472441
 20
-0.019685
 30
0.0
 11
0.0472441
 21
0.019685
 31
0.0
  0
LINE
  5
A84
  8
TOPSOLDER
 10
0.0472441
 20
0.019685
 30
0.0
 11
0.0118111
 21
0.019685
 31
0.0
  0
LINE
  5
A85
  8
TOPSOLDER
 10
0.0118111
 20
0.019685
 30
0.0
 11
0.0118111
 21
-0.019685
 31
0.0
  0
LINE
  5
A86
  8
TOPSOLDER
 10
0.0118111
 20
-0.019685
 30
0.0
 11
0.0472441
 21
-0.019685
 31
0.0
  0
ENDBLK
  5
A7E
  8
0
  0
BLOCK
  8
0
  2
M_FLAT_B_186
 70
     0
 10
0.0
 20
0.0
 30
0.0
  3
M_FLAT_B_186
  1

  0
ENDBLK
  5
A8A
  8
0
  0
BLOCK
  8
0
  2
C0603_B_187
 70
     0
 10
0.0
 20
0.0
 30
0.0
  3
C0603_B_187
  1

  0
ENDBLK
  5
A8E
  8
0
  0
BLOCK
  8
0
  2
C0603_188
 70
     0
 10
0.0
 20
0.0
 30
0.0
  3
C0603_188
  1

  0
LINE
  5
A93
  8
TOPSOLDER
 10
-0.0477165
 20
0.019685
 30
0.0
 11
-0.0477165
 21
-0.019685
 31
0.0
  0
LINE
  5
A94
  8
TOPSOLDER
 10
-0.0477165
 20
-0.019685
 30
0.0
 11
-0.0122835
 21
-0.019685
 31
0.0
  0
LINE
  5
A95
  8
TOPSOLDER
 10
-0.0122835
 20
-0.019685
 30
0.0
 11
-0.0122835
 21
0.019685
 31
0.0
  0
LINE
  5
A96
  8
TOPSOLDER
 10
-0.0122835
 20
0.019685
 30
0.0
 11
-0.0477165
 21
0.019685
 31
0.0
  0
LINE
  5
A97
  8
TOPSOLDER
 10
0.0122835
 20
0.019685
 30
0.0
 11
0.0122835
 21
-0.019685
 31
0.0
  0
LINE
  5
A98
  8
TOPSOLDER
 10
0.0122835
 20
-0.019685
 30
0.0
 11
0.0477165
 21
-0.019685
 31
0.0
  0
LINE
  5
A99
  8
TOPSOLDER
 10
0.0477165
 20
-0.019685
 30
0.0
 11
0.0477165
 21
0.019685
 31
0.0
  0
LINE
  5
A9A
  8
TOPSOLDER
 10
0.0477165
 20
0.019685
 30
0.0
 11
0.0122835
 21
0.019685
 31
0.0
  0
ENDBLK
  5
A92
  8
0
  0
BLOCK
  8
0
  2
C0603_189
 70
     0
 10
0.0
 20
0.0
 30
0.0
  3
C0603_189
  1

  0
LINE
  5
A9F
  8
TOPSOLDER
 10
0.0477165
 20
-0.019685
 30
0.0
 11
0.0477165
 21
0.019685
 31
0.0
  0
LINE
  5
AA0
  8
TOPSOLDER
 10
0.0477165
 20
0.019685
 30
0.0
 11
0.0122835
 21
0.019685
 31
0.0
  0
LINE
  5
AA1
  8
TOPSOLDER
 10
0.0122835
 20
0.019685
 30
0.0
 11
0.0122835
 21
-0.019685
 31
0.0
  0
LINE
  5
AA2
  8
TOPSOLDER
 10
0.0122835
 20
-0.019685
 30
0.0
 11
0.0477165
 21
-0.019685
 31
0.0
  0
LINE
  5
AA3
  8
TOPSOLDER
 10
-0.0122835
 20
-0.019685
 30
0.0
 11
-0.0122835
 21
0.019685
 31
0.0
  0
LINE
  5
AA4
  8
TOPSOLDER
 10
-0.0122835
 20
0.019685
 30
0.0
 11
-0.0477165
 21
0.019685
 31
0.0
  0
LINE
  5
AA5
  8
TOPSOLDER
 10
-0.0477165
 20
0.019685
 30
0.0
 11
-0.0477165
 21
-0.019685
 31
0.0
  0
LINE
  5
AA6
  8
TOPSOLDER
 10
-0.0477165
 20
-0.019685
 30
0.0
 11
-0.0122835
 21
-0.019685
 31
0.0
  0
ENDBLK
  5
A9E
  8
0
  0
BLOCK
  8
0
  2
TAJA_190
 70
     0
 10
0.0
 20
0.0
 30
0.0
  3
TAJA_190
  1

  0
LINE
  5
AAB
  8
TOPSOLDER
 10
0.0255905
 20
-0.0310315
 30
0.0
 11
-0.0255905
 21
-0.0310315
 31
0.0
  0
LINE
  5
AAC
  8
TOPSOLDER
 10
-0.0255905
 20
-0.0310315
 30
0.0
 11
-0.0255905
 21
-0.0989685
 31
0.0
  0
LINE
  5
AAD
  8
TOPSOLDER
 10
-0.0255905
 20
-0.0989685
 30
0.0
 11
0.0255905
 21
-0.0989685
 31
0.0
  0
LINE
  5
AAE
  8
TOPSOLDER
 10
0.0255905
 20
-0.0989685
 30
0.0
 11
0.0255905
 21
-0.0310315
 31
0.0
  0
LINE
  5
AAF
  8
TOPSOLDER
 10
0.0255905
 20
0.0984645
 30
0.0
 11
-0.0255905
 21
0.0984645
 31
0.0
  0
LINE
  5
AB0
  8
TOPSOLDER
 10
-0.0255905
 20
0.0984645
 30
0.0
 11
-0.0255905
 21
0.0315355
 31
0.0
  0
LINE
  5
AB1
  8
TOPSOLDER
 10
-0.0255905
 20
0.0315355
 30
0.0
 11
0.0255905
 21
0.0315355
 31
0.0
  0
LINE
  5
AB2
  8
TOPSOLDER
 10
0.0255905
 20
0.0315355
 30
0.0
 11
0.0255905
 21
0.0984645
 31
0.0
  0
ENDBLK
  5
AAA
  8
0
  0
BLOCK
  8
0
  2
TAJB_191
 70
     0
 10
0.0
 20
0.0
 30
0.0
  3
TAJB_191
  1

  0
LINE
  5
AB7
  8
TOPSOLDER
 10
-0.0452755
 20
-0.1039685
 30
0.0
 11
0.0452755
 21
-0.1039685
 31
0.0
  0
LINE
  5
AB8
  8
TOPSOLDER
 10
0.0452755
 20
-0.1039685
 30
0.0
 11
0.0452755
 21
-0.0360315
 31
0.0
  0
LINE
  5
AB9
  8
TOPSOLDER
 10
0.0452755
 20
-0.0360315
 30
0.0
 11
-0.0452755
 21
-0.0360315
 31
0.0
  0
LINE
  5
ABA
  8
TOPSOLDER
 10
-0.0452755
 20
-0.0360315
 30
0.0
 11
-0.0452755
 21
-0.1039685
 31
0.0
  0
LINE
  5
ABB
  8
TOPSOLDER
 10
-0.0452756
 20
0.0360315
 30
0.0
 11
0.0452756
 21
0.0360315
 31
0.0
  0
LINE
  5
ABC
  8
TOPSOLDER
 10
0.0452756
 20
0.0360315
 30
0.0
 11
0.0452756
 21
0.1039685
 31
0.0
  0
LINE
  5
ABD
  8
TOPSOLDER
 10
0.0452756
 20
0.1039685
 30
0.0
 11
-0.0452756
 21
0.1039685
 31
0.0
  0
LINE
  5
ABE
  8
TOPSOLDER
 10
-0.0452756
 20
0.1039685
 30
0.0
 11
-0.0452756
 21
0.0360315
 31
0.0
  0
ENDBLK
  5
AB6
  8
0
  0
BLOCK
  8
0
  2
C0603_192
 70
     0
 10
0.0
 20
0.0
 30
0.0
  3
C0603_192
  1

  0
LINE
  5
AC3
  8
TOPSOLDER
 10
-0.0477165
 20
0.019685
 30
0.0
 11
-0.0477165
 21
-0.019685
 31
0.0
  0
LINE
  5
AC4
  8
TOPSOLDER
 10
-0.0477165
 20
-0.019685
 30
0.0
 11
-0.0122835
 21
-0.019685
 31
0.0
  0
LINE
  5
AC5
  8
TOPSOLDER
 10
-0.0122835
 20
-0.019685
 30
0.0
 11
-0.0122835
 21
0.019685
 31
0.0
  0
LINE
  5
AC6
  8
TOPSOLDER
 10
-0.0122835
 20
0.019685
 30
0.0
 11
-0.0477165
 21
0.019685
 31
0.0
  0
LINE
  5
AC7
  8
TOPSOLDER
 10
0.0122835
 20
0.019685
 30
0.0
 11
0.0122835
 21
-0.019685
 31
0.0
  0
LINE
  5
AC8
  8
TOPSOLDER
 10
0.0122835
 20
-0.019685
 30
0.0
 11
0.0477165
 21
-0.019685
 31
0.0
  0
LINE
  5
AC9
  8
TOPSOLDER
 10
0.0477165
 20
-0.019685
 30
0.0
 11
0.0477165
 21
0.019685
 31
0.0
  0
LINE
  5
ACA
  8
TOPSOLDER
 10
0.0477165
 20
0.019685
 30
0.0
 11
0.0122835
 21
0.019685
 31
0.0
  0
ENDBLK
  5
AC2
  8
0
  0
BLOCK
  8
0
  2
C0603_B_193
 70
     0
 10
0.0
 20
0.0
 30
0.0
  3
C0603_B_193
  1

  0
ENDBLK
  5
ACE
  8
0
  0
BLOCK
  8
0
  2
C0603_B_194
 70
     0
 10
0.0
 20
0.0
 30
0.0
  3
C0603_B_194
  1

  0
ENDBLK
  5
AD2
  8
0
  0
BLOCK
  8
0
  2
TAJA_B_195
 70
     0
 10
0.0
 20
0.0
 30
0.0
  3
TAJA_B_195
  1

  0
ENDBLK
  5
AD6
  8
0
  0
BLOCK
  8
0
  2
C0603_196
 70
     0
 10
0.0
 20
0.0
 30
0.0
  3
C0603_196
  1

  0
LINE
  5
ADB
  8
TOPSOLDER
 10
-0.0477165
 20
0.019685
 30
0.0
 11
-0.0477165
 21
-0.019685
 31
0.0
  0
LINE
  5
ADC
  8
TOPSOLDER
 10
-0.0477165
 20
-0.019685
 30
0.0
 11
-0.0122835
 21
-0.019685
 31
0.0
  0
LINE
  5
ADD
  8
TOPSOLDER
 10
-0.0122835
 20
-0.019685
 30
0.0
 11
-0.0122835
 21
0.019685
 31
0.0
  0
LINE
  5
ADE
  8
TOPSOLDER
 10
-0.0122835
 20
0.019685
 30
0.0
 11
-0.0477165
 21
0.019685
 31
0.0
  0
LINE
  5
ADF
  8
TOPSOLDER
 10
0.0122835
 20
0.019685
 30
0.0
 11
0.0122835
 21
-0.019685
 31
0.0
  0
LINE
  5
AE0
  8
TOPSOLDER
 10
0.0122835
 20
-0.019685
 30
0.0
 11
0.0477165
 21
-0.019685
 31
0.0
  0
LINE
  5
AE1
  8
TOPSOLDER
 10
0.0477165
 20
-0.019685
 30
0.0
 11
0.0477165
 21
0.019685
 31
0.0
  0
LINE
  5
AE2
  8
TOPSOLDER
 10
0.0477165
 20
0.019685
 30
0.0
 11
0.0122835
 21
0.019685
 31
0.0
  0
ENDBLK
  5
ADA
  8
0
  0
BLOCK
  8
0
  2
DS2_197
 70
     0
 10
0.0
 20
0.0
 30
0.0
  3
DS2_197
  1

  0
CIRCLE
  5
AE7
  8
TOPSOLDER
 10
0.0
 20
0.0
 30
0.0
 40
0.1397638
  0
ENDBLK
  5
AE6
  8
0
  0
BLOCK
  8
0
  2
DS2_198
 70
     0
 10
0.0
 20
0.0
 30
0.0
  3
DS2_198
  1

  0
CIRCLE
  5
AEC
  8
TOPSOLDER
 10
0.0
 20
0.0
 30
0.0
 40
0.1397638
  0
ENDBLK
  5
AEB
  8
0
  0
BLOCK
  8
0
  2
C0603_B_199
 70
     0
 10
0.0
 20
0.0
 30
0.0
  3
C0603_B_199
  1

  0
ENDBLK
  5
AF0
  8
0
  0
BLOCK
  8
0
  2
C0603_B_200
 70
     0
 10
0.0
 20
0.0
 30
0.0
  3
C0603_B_200
  1

  0
ENDBLK
  5
AF4
  8
0
  0
BLOCK
  8
0
  2
C0603_201
 70
     0
 10
0.0
 20
0.0
 30
0.0
  3
C0603_201
  1

  0
LINE
  5
AF9
  8
TOPSOLDER
 10
0.0122835
 20
0.019685
 30
0.0
 11
0.0122835
 21
-0.019685
 31
0.0
  0
LINE
  5
AFA
  8
TOPSOLDER
 10
0.0122835
 20
-0.019685
 30
0.0
 11
0.0477165
 21
-0.019685
 31
0.0
  0
LINE
  5
AFB
  8
TOPSOLDER
 10
0.0477165
 20
-0.019685
 30
0.0
 11
0.0477165
 21
0.019685
 31
0.0
  0
LINE
  5
AFC
  8
TOPSOLDER
 10
0.0477165
 20
0.019685
 30
0.0
 11
0.0122835
 21
0.019685
 31
0.0
  0
LINE
  5
AFD
  8
TOPSOLDER
 10
-0.0477165
 20
0.019685
 30
0.0
 11
-0.0477165
 21
-0.019685
 31
0.0
  0
LINE
  5
AFE
  8
TOPSOLDER
 10
-0.0477165
 20
-0.019685
 30
0.0
 11
-0.0122835
 21
-0.019685
 31
0.0
  0
LINE
  5
AFF
  8
TOPSOLDER
 10
-0.0122835
 20
-0.019685
 30
0.0
 11
-0.0122835
 21
0.019685
 31
0.0
  0
LINE
  5
B00
  8
TOPSOLDER
 10
-0.0122835
 20
0.019685
 30
0.0
 11
-0.0477165
 21
0.019685
 31
0.0
  0
ENDBLK
  5
AF8
  8
0
  0
BLOCK
  8
0
  2
TAJA_B_202
 70
     0
 10
0.0
 20
0.0
 30
0.0
  3
TAJA_B_202
  1

  0
ENDBLK
  5
B04
  8
0
  0
BLOCK
  8
0
  2
TAJA_203
 70
     0
 10
0.0
 20
0.0
 30
0.0
  3
TAJA_203
  1

  0
LINE
  5
B09
  8
TOPSOLDER
 10
-0.0255905
 20
0.0310315
 30
0.0
 11
0.0255905
 21
0.0310315
 31
0.0
  0
LINE
  5
B0A
  8
TOPSOLDER
 10
0.0255905
 20
0.0310315
 30
0.0
 11
0.0255905
 21
0.0989685
 31
0.0
  0
LINE
  5
B0B
  8
TOPSOLDER
 10
0.0255905
 20
0.0989685
 30
0.0
 11
-0.0255905
 21
0.0989685
 31
0.0
  0
LINE
  5
B0C
  8
TOPSOLDER
 10
-0.0255905
 20
0.0989685
 30
0.0
 11
-0.0255905
 21
0.0310315
 31
0.0
  0
LINE
  5
B0D
  8
TOPSOLDER
 10
-0.0255905
 20
-0.0984645
 30
0.0
 11
0.0255905
 21
-0.0984645
 31
0.0
  0
LINE
  5
B0E
  8
TOPSOLDER
 10
0.0255905
 20
-0.0984645
 30
0.0
 11
0.0255905
 21
-0.0315355
 31
0.0
  0
LINE
  5
B0F
  8
TOPSOLDER
 10
0.0255905
 20
-0.0315355
 30
0.0
 11
-0.0255905
 21
-0.0315355
 31
0.0
  0
LINE
  5
B10
  8
TOPSOLDER
 10
-0.0255905
 20
-0.0315355
 30
0.0
 11
-0.0255905
 21
-0.0984645
 31
0.0
  0
ENDBLK
  5
B08
  8
0
  0
BLOCK
  8
0
  2
C0603_204
 70
     0
 10
0.0
 20
0.0
 30
0.0
  3
C0603_204
  1

  0
LINE
  5
B15
  8
TOPSOLDER
 10
0.0122835
 20
0.019685
 30
0.0
 11
0.0122835
 21
-0.019685
 31
0.0
  0
LINE
  5
B16
  8
TOPSOLDER
 10
0.0122835
 20
-0.019685
 30
0.0
 11
0.0477165
 21
-0.019685
 31
0.0
  0
LINE
  5
B17
  8
TOPSOLDER
 10
0.0477165
 20
-0.019685
 30
0.0
 11
0.0477165
 21
0.019685
 31
0.0
  0
LINE
  5
B18
  8
TOPSOLDER
 10
0.0477165
 20
0.019685
 30
0.0
 11
0.0122835
 21
0.019685
 31
0.0
  0
LINE
  5
B19
  8
TOPSOLDER
 10
-0.0477165
 20
0.019685
 30
0.0
 11
-0.0477165
 21
-0.019685
 31
0.0
  0
LINE
  5
B1A
  8
TOPSOLDER
 10
-0.0477165
 20
-0.019685
 30
0.0
 11
-0.0122835
 21
-0.019685
 31
0.0
  0
LINE
  5
B1B
  8
TOPSOLDER
 10
-0.0122835
 20
-0.019685
 30
0.0
 11
-0.0122835
 21
0.019685
 31
0.0
  0
LINE
  5
B1C
  8
TOPSOLDER
 10
-0.0122835
 20
0.019685
 30
0.0
 11
-0.0477165
 21
0.019685
 31
0.0
  0
ENDBLK
  5
B14
  8
0
  0
BLOCK
  8
0
  2
TAJB_205
 70
     0
 10
0.0
 20
0.0
 30
0.0
  3
TAJB_205
  1

  0
LINE
  5
B21
  8
TOPSOLDER
 10
-0.0452755
 20
-0.1039685
 30
0.0
 11
0.0452755
 21
-0.1039685
 31
0.0
  0
LINE
  5
B22
  8
TOPSOLDER
 10
0.0452755
 20
-0.1039685
 30
0.0
 11
0.0452755
 21
-0.0360315
 31
0.0
  0
LINE
  5
B23
  8
TOPSOLDER
 10
0.0452755
 20
-0.0360315
 30
0.0
 11
-0.0452755
 21
-0.0360315
 31
0.0
  0
LINE
  5
B24
  8
TOPSOLDER
 10
-0.0452755
 20
-0.0360315
 30
0.0
 11
-0.0452755
 21
-0.1039685
 31
0.0
  0
LINE
  5
B25
  8
TOPSOLDER
 10
-0.0452756
 20
0.0360315
 30
0.0
 11
0.0452756
 21
0.0360315
 31
0.0
  0
LINE
  5
B26
  8
TOPSOLDER
 10
0.0452756
 20
0.0360315
 30
0.0
 11
0.0452756
 21
0.1039685
 31
0.0
  0
LINE
  5
B27
  8
TOPSOLDER
 10
0.0452756
 20
0.1039685
 30
0.0
 11
-0.0452756
 21
0.1039685
 31
0.0
  0
LINE
  5
B28
  8
TOPSOLDER
 10
-0.0452756
 20
0.1039685
 30
0.0
 11
-0.0452756
 21
0.0360315
 31
0.0
  0
ENDBLK
  5
B20
  8
0
  0
BLOCK
  8
0
  2
C0603_B_206
 70
     0
 10
0.0
 20
0.0
 30
0.0
  3
C0603_B_206
  1

  0
ENDBLK
  5
B2C
  8
0
  0
BLOCK
  8
0
  2
C0603_B_207
 70
     0
 10
0.0
 20
0.0
 30
0.0
  3
C0603_B_207
  1

  0
ENDBLK
  5
B30
  8
0
  0
BLOCK
  8
0
  2
CES2_5_7_208
 70
     0
 10
0.0
 20
0.0
 30
0.0
  3
CES2_5_7_208
  1

  0
CIRCLE
  5
B35
  8
TOPSOLDER
 10
0.0997716
 20
-0.0003247
 30
0.0
 40
0.0334685
  0
CIRCLE
  5
B36
  8
TOPSOLDER
 10
-0.0002285
 20
-0.0003246
 30
0.0
 40
0.0334685
  0
ENDBLK
  5
B34
  8
0
  0
BLOCK
  8
0
  2
C0603_B_209
 70
     0
 10
0.0
 20
0.0
 30
0.0
  3
C0603_B_209
  1

  0
ENDBLK
  5
B3A
  8
0
  0
BLOCK
  8
0
  2
C0603_B_210
 70
     0
 10
0.0
 20
0.0
 30
0.0
  3
C0603_B_210
  1

  0
ENDBLK
  5
B3E
  8
0
  0
BLOCK
  8
0
  2
SOD80_B_211
 70
     0
 10
0.0
 20
0.0
 30
0.0
  3
SOD80_B_211
  1

  0
ENDBLK
  5
B42
  8
0
  0
BLOCK
  8
0
  2
DO214AA_B_212
 70
     0
 10
0.0
 20
0.0
 30
0.0
  3
DO214AA_B_212
  1

  0
ENDBLK
  5
B46
  8
0
  0
BLOCK
  8
0
  2
SOT23_6_B_213
 70
     0
 10
0.0
 20
0.0
 30
0.0
  3
SOT23_6_B_213
  1

  0
ENDBLK
  5
B4A
  8
0
  0
BLOCK
  8
0
  2
LSMD1_214
 70
     0
 10
0.0
 20
0.0
 30
0.0
  3
LSMD1_214
  1

  0
LINE
  5
B4F
  8
TOPSOLDER
 10
0.0767717
 20
0.1200787
 30
0.0
 11
0.0767717
 21
-0.1200787
 31
0.0
  0
LINE
  5
B50
  8
TOPSOLDER
 10
0.0767717
 20
-0.1200787
 30
0.0
 11
0.3169291
 21
-0.1200787
 31
0.0
  0
LINE
  5
B51
  8
TOPSOLDER
 10
0.3169291
 20
-0.1200787
 30
0.0
 11
0.3169291
 21
0.1200787
 31
0.0
  0
LINE
  5
B52
  8
TOPSOLDER
 10
0.3169291
 20
0.1200787
 30
0.0
 11
0.0767717
 21
0.1200787
 31
0.0
  0
LINE
  5
B53
  8
TOPSOLDER
 10
-0.3169291
 20
0.1200787
 30
0.0
 11
-0.3169291
 21
-0.1200787
 31
0.0
  0
LINE
  5
B54
  8
TOPSOLDER
 10
-0.3169291
 20
-0.1200787
 30
0.0
 11
-0.0767717
 21
-0.1200787
 31
0.0
  0
LINE
  5
B55
  8
TOPSOLDER
 10
-0.0767717
 20
-0.1200787
 30
0.0
 11
-0.0767717
 21
0.1200787
 31
0.0
  0
LINE
  5
B56
  8
TOPSOLDER
 10
-0.0767717
 20
0.1200787
 30
0.0
 11
-0.3169291
 21
0.1200787
 31
0.0
  0
ENDBLK
  5
B4E
  8
0
  0
BLOCK
  8
0
  2
R0603_B_215
 70
     0
 10
0.0
 20
0.0
 30
0.0
  3
R0603_B_215
  1

  0
ENDBLK
  5
B5A
  8
0
  0
BLOCK
  8
0
  2
R0603_B_216
 70
     0
 10
0.0
 20
0.0
 30
0.0
  3
R0603_B_216
  1

  0
ENDBLK
  5
B5E
  8
0
  0
BLOCK
  8
0
  2
R0603_B_217
 70
     0
 10
0.0
 20
0.0
 30
0.0
  3
R0603_B_217
  1

  0
ENDBLK
  5
B62
  8
0
  0
BLOCK
  8
0
  2
RJ45_90__218
 70
     0
 10
0.0
 20
0.0
 30
0.0
  3
RJ45_90__218
  1

  0
CIRCLE
  5
B67
  8
TOPSOLDER
 10
-0.249983
 20
-0.396709
 30
0.0
 40
0.0319685
  0
CIRCLE
  5
B68
  8
TOPSOLDER
 10
-0.249983
 20
-0.296709
 30
0.0
 40
0.0319685
  0
CIRCLE
  5
B69
  8
TOPSOLDER
 10
-0.249983
 20
-0.196709
 30
0.0
 40
0.0319685
  0
CIRCLE
  5
B6A
  8
TOPSOLDER
 10
-0.349983
 20
-0.346709
 30
0.0
 40
0.0319685
  0
CIRCLE
  5
B6B
  8
TOPSOLDER
 10
-0.349983
 20
-0.246709
 30
0.0
 40
0.0319685
  0
CIRCLE
  5
B6C
  8
TOPSOLDER
 10
-0.249983
 20
-0.096709
 30
0.0
 40
0.0319685
  0
CIRCLE
  5
B6D
  8
TOPSOLDER
 10
-0.349983
 20
-0.046709
 30
0.0
 40
0.0319685
  0
CIRCLE
  5
B6E
  8
TOPSOLDER
 10
-0.349983
 20
-0.146709
 30
0.0
 40
0.0319685
  0
ARC
  5
B6F
  8
TOPSOLDER
 10
0.100332
 20
0.088291
 30
0.0
 40
0.0413386
 50
90.0
 51
270.0
  0
LINE
  5
B70
  8
TOPSOLDER
 10
0.100332
 20
0.1296296
 30
0.0
 11
0.139702
 21
0.1296296
 31
0.0
  0
LINE
  5
B71
  8
TOPSOLDER
 10
0.100332
 20
0.0469524
 30
0.0
 11
0.139702
 21
0.0469524
 31
0.0
  0
ARC
  5
B72
  8
TOPSOLDER
 10
0.139702
 20
0.088291
 30
0.0
 40
0.0413386
 50
270.0
 51
90.0
  0
ARC
  5
B73
  8
TOPSOLDER
 10
0.100332
 20
-0.531709
 30
0.0
 40
0.0413386
 50
90.0
 51
270.0
  0
LINE
  5
B74
  8
TOPSOLDER
 10
0.100332
 20
-0.4903704
 30
0.0
 11
0.139702
 21
-0.4903704
 31
0.0
  0
LINE
  5
B75
  8
TOPSOLDER
 10
0.100332
 20
-0.5730476
 30
0.0
 11
0.139702
 21
-0.5730476
 31
0.0
  0
ARC
  5
B76
  8
TOPSOLDER
 10
0.139702
 20
-0.531709
 30
0.0
 40
0.0413386
 50
270.0
 51
90.0
  0
CIRCLE
  5
B77
  8
TOPSOLDER
 10
0.000017
 20
0.003291
 30
0.0
 40
0.0610236
  0
CIRCLE
  5
B78
  8
TOPSOLDER
 10
0.000017
 20
-0.446709
 30
0.0
 40
0.0610236
  0
ENDBLK
  5
B66
  8
0
  0
BLOCK
  8
0
  2
P_____KPE112__219
 70
     0
 10
0.0
 20
0.0
 30
0.0
  3
P_____KPE112__219
  1

  0
ARC
  5
B7D
  8
TOPSOLDER
 10
-0.1413863
 20
-0.3884555
 30
0.0
 40
0.0511811
 50
160.0
 51
340.0
  0
LINE
  5
B7E
  8
TOPSOLDER
 10
-0.0932918
 20
-0.4059605
 30
0.0
 11
-0.0798264
 21
-0.3689648
 31
0.0
  0
LINE
  5
B7F
  8
TOPSOLDER
 10
-0.1894808
 20
-0.3709506
 30
0.0
 11
-0.1760154
 21
-0.3339549
 31
0.0
  0
ARC
  5
B80
  8
TOPSOLDER
 10
-0.1279209
 20
-0.3514599
 30
0.0
 40
0.0511811
 50
340.0
 51
160.0
  0
ARC
  5
B81
  8
TOPSOLDER
 10
-0.0067327
 20
-0.0184978
 30
0.0
 40
0.0511811
 50
160.0
 51
340.0
  0
LINE
  5
B82
  8
TOPSOLDER
 10
0.0413618
 20
-0.0360028
 30
0.0
 11
0.0548272
 21
0.0009929
 31
0.0
  0
LINE
  5
B83
  8
TOPSOLDER
 10
-0.0548272
 20
-0.0009929
 30
0.0
 11
-0.0413618
 21
0.0360028
 31
0.0
  0
ARC
  5
B84
  8
TOPSOLDER
 10
0.0067327
 20
0.0184978
 30
0.0
 40
0.0511811
 50
340.0
 51
160.0
  0
ENDBLK
  5
B7C
  8
0
  0
BLOCK
  8
0
  2
SOT23_B_220
 70
     0
 10
0.0
 20
0.0
 30
0.0
  3
SOT23_B_220
  1

  0
ENDBLK
  5
B88
  8
0
  0
BLOCK
  8
0
  2
R0603_B_221
 70
     0
 10
0.0
 20
0.0
 30
0.0
  3
R0603_B_221
  1

  0
ENDBLK
  5
B8C
  8
0
  0
BLOCK
  8
0
  2
C0603_222
 70
     0
 10
0.0
 20
0.0
 30
0.0
  3
C0603_222
  1

  0
LINE
  5
B91
  8
TOPSOLDER
 10
0.0122835
 20
0.019685
 30
0.0
 11
0.0122835
 21
-0.019685
 31
0.0
  0
LINE
  5
B92
  8
TOPSOLDER
 10
0.0122835
 20
-0.019685
 30
0.0
 11
0.0477165
 21
-0.019685
 31
0.0
  0
LINE
  5
B93
  8
TOPSOLDER
 10
0.0477165
 20
-0.019685
 30
0.0
 11
0.0477165
 21
0.019685
 31
0.0
  0
LINE
  5
B94
  8
TOPSOLDER
 10
0.0477165
 20
0.019685
 30
0.0
 11
0.0122835
 21
0.019685
 31
0.0
  0
LINE
  5
B95
  8
TOPSOLDER
 10
-0.0477165
 20
0.019685
 30
0.0
 11
-0.0477165
 21
-0.019685
 31
0.0
  0
LINE
  5
B96
  8
TOPSOLDER
 10
-0.0477165
 20
-0.019685
 30
0.0
 11
-0.0122835
 21
-0.019685
 31
0.0
  0
LINE
  5
B97
  8
TOPSOLDER
 10
-0.0122835
 20
-0.019685
 30
0.0
 11
-0.0122835
 21
0.019685
 31
0.0
  0
LINE
  5
B98
  8
TOPSOLDER
 10
-0.0122835
 20
0.019685
 30
0.0
 11
-0.0477165
 21
0.019685
 31
0.0
  0
ENDBLK
  5
B90
  8
0
  0
BLOCK
  8
0
  2
C0603_223
 70
     0
 10
0.0
 20
0.0
 30
0.0
  3
C0603_223
  1

  0
LINE
  5
B9D
  8
TOPSOLDER
 10
0.0122835
 20
0.019685
 30
0.0
 11
0.0122835
 21
-0.019685
 31
0.0
  0
LINE
  5
B9E
  8
TOPSOLDER
 10
0.0122835
 20
-0.019685
 30
0.0
 11
0.0477165
 21
-0.019685
 31
0.0
  0
LINE
  5
B9F
  8
TOPSOLDER
 10
0.0477165
 20
-0.019685
 30
0.0
 11
0.0477165
 21
0.019685
 31
0.0
  0
LINE
  5
BA0
  8
TOPSOLDER
 10
0.0477165
 20
0.019685
 30
0.0
 11
0.0122835
 21
0.019685
 31
0.0
  0
LINE
  5
BA1
  8
TOPSOLDER
 10
-0.0477165
 20
0.019685
 30
0.0
 11
-0.0477165
 21
-0.019685
 31
0.0
  0
LINE
  5
BA2
  8
TOPSOLDER
 10
-0.0477165
 20
-0.019685
 30
0.0
 11
-0.0122835
 21
-0.019685
 31
0.0
  0
LINE
  5
BA3
  8
TOPSOLDER
 10
-0.0122835
 20
-0.019685
 30
0.0
 11
-0.0122835
 21
0.019685
 31
0.0
  0
LINE
  5
BA4
  8
TOPSOLDER
 10
-0.0122835
 20
0.019685
 30
0.0
 11
-0.0477165
 21
0.019685
 31
0.0
  0
ENDBLK
  5
B9C
  8
0
  0
BLOCK
  8
0
  2
C0603_B_224
 70
     0
 10
0.0
 20
0.0
 30
0.0
  3
C0603_B_224
  1

  0
ENDBLK
  5
BA8
  8
0
  0
BLOCK
  8
0
  2
C0603_B_225
 70
     0
 10
0.0
 20
0.0
 30
0.0
  3
C0603_B_225
  1

  0
ENDBLK
  5
BAC
  8
0
  0
BLOCK
  8
0
  2
C0603_B_226
 70
     0
 10
0.0
 20
0.0
 30
0.0
  3
C0603_B_226
  1

  0
ENDBLK
  5
BB0
  8
0
  0
BLOCK
  8
0
  2
C0603_B_227
 70
     0
 10
0.0
 20
0.0
 30
0.0
  3
C0603_B_227
  1

  0
ENDBLK
  5
BB4
  8
0
  0
BLOCK
  8
0
  2
C0603_B_228
 70
     0
 10
0.0
 20
0.0
 30
0.0
  3
C0603_B_228
  1

  0
ENDBLK
  5
BB8
  8
0
  0
BLOCK
  8
0
  2
C0603_B_229
 70
     0
 10
0.0
 20
0.0
 30
0.0
  3
C0603_B_229
  1

  0
ENDBLK
  5
BBC
  8
0
  0
BLOCK
  8
0
  2
C0603_B_230
 70
     0
 10
0.0
 20
0.0
 30
0.0
  3
C0603_B_230
  1

  0
ENDBLK
  5
BC0
  8
0
  0
BLOCK
  8
0
  2
C0603_231
 70
     0
 10
0.0
 20
0.0
 30
0.0
  3
C0603_231
  1

  0
LINE
  5
BC5
  8
TOPSOLDER
 10
-0.0122835
 20
-0.019685
 30
0.0
 11
-0.0122835
 21
0.019685
 31
0.0
  0
LINE
  5
BC6
  8
TOPSOLDER
 10
-0.0122835
 20
0.019685
 30
0.0
 11
-0.0477165
 21
0.019685
 31
0.0
  0
LINE
  5
BC7
  8
TOPSOLDER
 10
-0.0477165
 20
0.019685
 30
0.0
 11
-0.0477165
 21
-0.019685
 31
0.0
  0
LINE
  5
BC8
  8
TOPSOLDER
 10
-0.0477165
 20
-0.019685
 30
0.0
 11
-0.0122835
 21
-0.019685
 31
0.0
  0
LINE
  5
BC9
  8
TOPSOLDER
 10
0.0477165
 20
-0.019685
 30
0.0
 11
0.0477165
 21
0.019685
 31
0.0
  0
LINE
  5
BCA
  8
TOPSOLDER
 10
0.0477165
 20
0.019685
 30
0.0
 11
0.0122835
 21
0.019685
 31
0.0
  0
LINE
  5
BCB
  8
TOPSOLDER
 10
0.0122835
 20
0.019685
 30
0.0
 11
0.0122835
 21
-0.019685
 31
0.0
  0
LINE
  5
BCC
  8
TOPSOLDER
 10
0.0122835
 20
-0.019685
 30
0.0
 11
0.0477165
 21
-0.019685
 31
0.0
  0
ENDBLK
  5
BC4
  8
0
  0
BLOCK
  8
0
  2
C0603_B_232
 70
     0
 10
0.0
 20
0.0
 30
0.0
  3
C0603_B_232
  1

  0
ENDBLK
  5
BD0
  8
0
  0
BLOCK
  8
0
  2
C0603_B_233
 70
     0
 10
0.0
 20
0.0
 30
0.0
  3
C0603_B_233
  1

  0
ENDBLK
  5
BD4
  8
0
  0
BLOCK
  8
0
  2
C0603_234
 70
     0
 10
0.0
 20
0.0
 30
0.0
  3
C0603_234
  1

  0
LINE
  5
BD9
  8
TOPSOLDER
 10
-0.0122835
 20
-0.019685
 30
0.0
 11
-0.0122835
 21
0.019685
 31
0.0
  0
LINE
  5
BDA
  8
TOPSOLDER
 10
-0.0122835
 20
0.019685
 30
0.0
 11
-0.0477165
 21
0.019685
 31
0.0
  0
LINE
  5
BDB
  8
TOPSOLDER
 10
-0.0477165
 20
0.019685
 30
0.0
 11
-0.0477165
 21
-0.019685
 31
0.0
  0
LINE
  5
BDC
  8
TOPSOLDER
 10
-0.0477165
 20
-0.019685
 30
0.0
 11
-0.0122835
 21
-0.019685
 31
0.0
  0
LINE
  5
BDD
  8
TOPSOLDER
 10
0.0477165
 20
-0.019685
 30
0.0
 11
0.0477165
 21
0.019685
 31
0.0
  0
LINE
  5
BDE
  8
TOPSOLDER
 10
0.0477165
 20
0.019685
 30
0.0
 11
0.0122835
 21
0.019685
 31
0.0
  0
LINE
  5
BDF
  8
TOPSOLDER
 10
0.0122835
 20
0.019685
 30
0.0
 11
0.0122835
 21
-0.019685
 31
0.0
  0
LINE
  5
BE0
  8
TOPSOLDER
 10
0.0122835
 20
-0.019685
 30
0.0
 11
0.0477165
 21
-0.019685
 31
0.0
  0
ENDBLK
  5
BD8
  8
0
  0
BLOCK
  8
0
  2
C0603_235
 70
     0
 10
0.0
 20
0.0
 30
0.0
  3
C0603_235
  1

  0
LINE
  5
BE5
  8
TOPSOLDER
 10
-0.0122835
 20
-0.019685
 30
0.0
 11
-0.0122835
 21
0.019685
 31
0.0
  0
LINE
  5
BE6
  8
TOPSOLDER
 10
-0.0122835
 20
0.019685
 30
0.0
 11
-0.0477165
 21
0.019685
 31
0.0
  0
LINE
  5
BE7
  8
TOPSOLDER
 10
-0.0477165
 20
0.019685
 30
0.0
 11
-0.0477165
 21
-0.019685
 31
0.0
  0
LINE
  5
BE8
  8
TOPSOLDER
 10
-0.0477165
 20
-0.019685
 30
0.0
 11
-0.0122835
 21
-0.019685
 31
0.0
  0
LINE
  5
BE9
  8
TOPSOLDER
 10
0.0477165
 20
-0.019685
 30
0.0
 11
0.0477165
 21
0.019685
 31
0.0
  0
LINE
  5
BEA
  8
TOPSOLDER
 10
0.0477165
 20
0.019685
 30
0.0
 11
0.0122835
 21
0.019685
 31
0.0
  0
LINE
  5
BEB
  8
TOPSOLDER
 10
0.0122835
 20
0.019685
 30
0.0
 11
0.0122835
 21
-0.019685
 31
0.0
  0
LINE
  5
BEC
  8
TOPSOLDER
 10
0.0122835
 20
-0.019685
 30
0.0
 11
0.0477165
 21
-0.019685
 31
0.0
  0
ENDBLK
  5
BE4
  8
0
  0
BLOCK
  8
0
  2
C0603_B_236
 70
     0
 10
0.0
 20
0.0
 30
0.0
  3
C0603_B_236
  1

  0
ENDBLK
  5
BF0
  8
0
  0
BLOCK
  8
0
  2
C0603_B_237
 70
     0
 10
0.0
 20
0.0
 30
0.0
  3
C0603_B_237
  1

  0
ENDBLK
  5
BF4
  8
0
  0
BLOCK
  8
0
  2
C0603_B_238
 70
     0
 10
0.0
 20
0.0
 30
0.0
  3
C0603_B_238
  1

  0
ENDBLK
  5
BF8
  8
0
  0
BLOCK
  8
0
  2
C0603_B_239
 70
     0
 10
0.0
 20
0.0
 30
0.0
  3
C0603_B_239
  1

  0
ENDBLK
  5
BFC
  8
0
  0
BLOCK
  8
0
  2
TAJA_B_240
 70
     0
 10
0.0
 20
0.0
 30
0.0
  3
TAJA_B_240
  1

  0
ENDBLK
  5
C00
  8
0
  0
BLOCK
  8
0
  2
C0603_B_241
 70
     0
 10
0.0
 20
0.0
 30
0.0
  3
C0603_B_241
  1

  0
ENDBLK
  5
C04
  8
0
  0
BLOCK
  8
0
  2
C0603_B_242
 70
     0
 10
0.0
 20
0.0
 30
0.0
  3
C0603_B_242
  1

  0
ENDBLK
  5
C08
  8
0
  0
BLOCK
  8
0
  2
C0603_B_243
 70
     0
 10
0.0
 20
0.0
 30
0.0
  3
C0603_B_243
  1

  0
ENDBLK
  5
C0C
  8
0
  0
BLOCK
  8
0
  2
C0603_B_244
 70
     0
 10
0.0
 20
0.0
 30
0.0
  3
C0603_B_244
  1

  0
ENDBLK
  5
C10
  8
0
  0
BLOCK
  8
0
  2
C0603_B_245
 70
     0
 10
0.0
 20
0.0
 30
0.0
  3
C0603_B_245
  1

  0
ENDBLK
  5
C14
  8
0
  0
BLOCK
  8
0
  2
C0603_B_246
 70
     0
 10
0.0
 20
0.0
 30
0.0
  3
C0603_B_246
  1

  0
ENDBLK
  5
C18
  8
0
  0
BLOCK
  8
0
  2
C0603_B_247
 70
     0
 10
0.0
 20
0.0
 30
0.0
  3
C0603_B_247
  1

  0
ENDBLK
  5
C1C
  8
0
  0
BLOCK
  8
0
  2
C0603_B_248
 70
     0
 10
0.0
 20
0.0
 30
0.0
  3
C0603_B_248
  1

  0
ENDBLK
  5
C20
  8
0
  0
BLOCK
  8
0
  2
C0603_B_249
 70
     0
 10
0.0
 20
0.0
 30
0.0
  3
C0603_B_249
  1

  0
ENDBLK
  5
C24
  8
0
  0
BLOCK
  8
0
  2
C0603_B_250
 70
     0
 10
0.0
 20
0.0
 30
0.0
  3
C0603_B_250
  1

  0
ENDBLK
  5
C28
  8
0
  0
BLOCK
  8
0
  2
C0603_B_251
 70
     0
 10
0.0
 20
0.0
 30
0.0
  3
C0603_B_251
  1

  0
ENDBLK
  5
C2C
  8
0
  0
BLOCK
  8
0
  2
C0603_B_252
 70
     0
 10
0.0
 20
0.0
 30
0.0
  3
C0603_B_252
  1

  0
ENDBLK
  5
C30
  8
0
  0
BLOCK
  8
0
  2
TAJA_B_253
 70
     0
 10
0.0
 20
0.0
 30
0.0
  3
TAJA_B_253
  1

  0
ENDBLK
  5
C34
  8
0
  0
BLOCK
  8
0
  2
C0603_B_254
 70
     0
 10
0.0
 20
0.0
 30
0.0
  3
C0603_B_254
  1

  0
ENDBLK
  5
C38
  8
0
  0
BLOCK
  8
0
  2
M_FLAT_B_255
 70
     0
 10
0.0
 20
0.0
 30
0.0
  3
M_FLAT_B_255
  1

  0
ENDBLK
  5
C3C
  8
0
  0
BLOCK
  8
0
  2
SOD80_B_256
 70
     0
 10
0.0
 20
0.0
 30
0.0
  3
SOD80_B_256
  1

  0
ENDBLK
  5
C40
  8
0
  0
BLOCK
  8
0
  2
D0805_257
 70
     0
 10
0.0
 20
0.0
 30
0.0
  3
D0805_257
  1

  0
LINE
  5
C45
  8
TOPSOLDER
 10
0.0215748
 20
0.0277992
 30
0.0
 11
0.0215748
 21
-0.0281378
 31
0.0
  0
LINE
  5
C46
  8
TOPSOLDER
 10
0.0215748
 20
-0.0281378
 30
0.0
 11
0.0655118
 21
-0.0281378
 31
0.0
  0
LINE
  5
C47
  8
TOPSOLDER
 10
0.0655118
 20
-0.0281378
 30
0.0
 11
0.0655118
 21
0.0277992
 31
0.0
  0
LINE
  5
C48
  8
TOPSOLDER
 10
0.0655118
 20
0.0277992
 30
0.0
 11
0.0215748
 21
0.0277992
 31
0.0
  0
LINE
  5
C49
  8
TOPSOLDER
 10
-0.0664252
 20
0.0277992
 30
0.0
 11
-0.0664252
 21
-0.0281378
 31
0.0
  0
LINE
  5
C4A
  8
TOPSOLDER
 10
-0.0664252
 20
-0.0281378
 30
0.0
 11
-0.0224882
 21
-0.0281378
 31
0.0
  0
LINE
  5
C4B
  8
TOPSOLDER
 10
-0.0224882
 20
-0.0281378
 30
0.0
 11
-0.0224882
 21
0.0277992
 31
0.0
  0
LINE
  5
C4C
  8
TOPSOLDER
 10
-0.0224882
 20
0.0277992
 30
0.0
 11
-0.0664252
 21
0.0277992
 31
0.0
  0
ENDBLK
  5
C44
  8
0
  0
BLOCK
  8
0
  2
D0805_258
 70
     0
 10
0.0
 20
0.0
 30
0.0
  3
D0805_258
  1

  0
LINE
  5
C51
  8
TOPSOLDER
 10
0.0215748
 20
0.0277992
 30
0.0
 11
0.0215748
 21
-0.0281378
 31
0.0
  0
LINE
  5
C52
  8
TOPSOLDER
 10
0.0215748
 20
-0.0281378
 30
0.0
 11
0.0655118
 21
-0.0281378
 31
0.0
  0
LINE
  5
C53
  8
TOPSOLDER
 10
0.0655118
 20
-0.0281378
 30
0.0
 11
0.0655118
 21
0.0277992
 31
0.0
  0
LINE
  5
C54
  8
TOPSOLDER
 10
0.0655118
 20
0.0277992
 30
0.0
 11
0.0215748
 21
0.0277992
 31
0.0
  0
LINE
  5
C55
  8
TOPSOLDER
 10
-0.0664252
 20
0.0277992
 30
0.0
 11
-0.0664252
 21
-0.0281378
 31
0.0
  0
LINE
  5
C56
  8
TOPSOLDER
 10
-0.0664252
 20
-0.0281378
 30
0.0
 11
-0.0224882
 21
-0.0281378
 31
0.0
  0
LINE
  5
C57
  8
TOPSOLDER
 10
-0.0224882
 20
-0.0281378
 30
0.0
 11
-0.0224882
 21
0.0277992
 31
0.0
  0
LINE
  5
C58
  8
TOPSOLDER
 10
-0.0224882
 20
0.0277992
 30
0.0
 11
-0.0664252
 21
0.0277992
 31
0.0
  0
ENDBLK
  5
C50
  8
0
  0
BLOCK
  8
0
  2
R0805_B_259
 70
     0
 10
0.0
 20
0.0
 30
0.0
  3
R0805_B_259
  1

  0
ENDBLK
  5
C5C
  8
0
  0
BLOCK
  8
0
  2
R0805_B_260
 70
     0
 10
0.0
 20
0.0
 30
0.0
  3
R0805_B_260
  1

  0
ENDBLK
  5
C60
  8
0
  0
BLOCK
  8
0
  2
R0805_B_261
 70
     0
 10
0.0
 20
0.0
 30
0.0
  3
R0805_B_261
  1

  0
ENDBLK
  5
C64
  8
0
  0
BLOCK
  8
0
  2
SOT23_6_B_262
 70
     0
 10
0.0
 20
0.0
 30
0.0
  3
SOT23_6_B_262
  1

  0
ENDBLK
  5
C68
  8
0
  0
BLOCK
  8
0
  2
SDR0604_1_263
 70
     0
 10
0.0
 20
0.0
 30
0.0
  3
SDR0604_1_263
  1

  0
LINE
  5
C6D
  8
TOPSOLDER
 10
-0.1062992
 20
0.0354331
 30
0.0
 11
0.1062992
 21
0.0354331
 31
0.0
  0
LINE
  5
C6E
  8
TOPSOLDER
 10
0.1062992
 20
0.0354331
 30
0.0
 11
0.1062992
 21
0.1220473
 31
0.0
  0
LINE
  5
C6F
  8
TOPSOLDER
 10
0.1062992
 20
0.1220473
 30
0.0
 11
-0.1062992
 21
0.1220473
 31
0.0
  0
LINE
  5
C70
  8
TOPSOLDER
 10
-0.1062992
 20
0.1220473
 30
0.0
 11
-0.1062992
 21
0.0354331
 31
0.0
  0
LINE
  5
C71
  8
TOPSOLDER
 10
-0.1043307
 20
-0.1220473
 30
0.0
 11
0.1082677
 21
-0.1220473
 31
0.0
  0
LINE
  5
C72
  8
TOPSOLDER
 10
0.1082677
 20
-0.1220473
 30
0.0
 11
0.1082677
 21
-0.0354331
 31
0.0
  0
LINE
  5
C73
  8
TOPSOLDER
 10
0.1082677
 20
-0.0354331
 30
0.0
 11
-0.1043307
 21
-0.0354331
 31
0.0
  0
LINE
  5
C74
  8
TOPSOLDER
 10
-0.1043307
 20
-0.0354331
 30
0.0
 11
-0.1043307
 21
-0.1220473
 31
0.0
  0
ENDBLK
  5
C6C
  8
0
  0
BLOCK
  8
0
  2
L1210_B_264
 70
     0
 10
0.0
 20
0.0
 30
0.0
  3
L1210_B_264
  1

  0
ENDBLK
  5
C78
  8
0
  0
BLOCK
  8
0
  2
L1210_B_265
 70
     0
 10
0.0
 20
0.0
 30
0.0
  3
L1210_B_265
  1

  0
ENDBLK
  5
C7C
  8
0
  0
BLOCK
  8
0
  2
R0603_B_266
 70
     0
 10
0.0
 20
0.0
 30
0.0
  3
R0603_B_266
  1

  0
ENDBLK
  5
C80
  8
0
  0
BLOCK
  8
0
  2
R0603_B_267
 70
     0
 10
0.0
 20
0.0
 30
0.0
  3
R0603_B_267
  1

  0
ENDBLK
  5
C84
  8
0
  0
BLOCK
  8
0
  2
R0603_268
 70
     0
 10
0.0
 20
0.0
 30
0.0
  3
R0603_268
  1

  0
LINE
  5
C89
  8
TOPSOLDER
 10
0.0477165
 20
-0.019685
 30
0.0
 11
0.0477165
 21
0.019685
 31
0.0
  0
LINE
  5
C8A
  8
TOPSOLDER
 10
0.0477165
 20
0.019685
 30
0.0
 11
0.0122835
 21
0.019685
 31
0.0
  0
LINE
  5
C8B
  8
TOPSOLDER
 10
0.0122835
 20
0.019685
 30
0.0
 11
0.0122835
 21
-0.019685
 31
0.0
  0
LINE
  5
C8C
  8
TOPSOLDER
 10
0.0122835
 20
-0.019685
 30
0.0
 11
0.0477165
 21
-0.019685
 31
0.0
  0
LINE
  5
C8D
  8
TOPSOLDER
 10
-0.0122835
 20
-0.019685
 30
0.0
 11
-0.0122835
 21
0.019685
 31
0.0
  0
LINE
  5
C8E
  8
TOPSOLDER
 10
-0.0122835
 20
0.019685
 30
0.0
 11
-0.0477165
 21
0.019685
 31
0.0
  0
LINE
  5
C8F
  8
TOPSOLDER
 10
-0.0477165
 20
0.019685
 30
0.0
 11
-0.0477165
 21
-0.019685
 31
0.0
  0
LINE
  5
C90
  8
TOPSOLDER
 10
-0.0477165
 20
-0.019685
 30
0.0
 11
-0.0122835
 21
-0.019685
 31
0.0
  0
ENDBLK
  5
C88
  8
0
  0
BLOCK
  8
0
  2
R0603_269
 70
     0
 10
0.0
 20
0.0
 30
0.0
  3
R0603_269
  1

  0
LINE
  5
C95
  8
TOPSOLDER
 10
0.0477165
 20
-0.019685
 30
0.0
 11
0.0477165
 21
0.019685
 31
0.0
  0
LINE
  5
C96
  8
TOPSOLDER
 10
0.0477165
 20
0.019685
 30
0.0
 11
0.0122835
 21
0.019685
 31
0.0
  0
LINE
  5
C97
  8
TOPSOLDER
 10
0.0122835
 20
0.019685
 30
0.0
 11
0.0122835
 21
-0.019685
 31
0.0
  0
LINE
  5
C98
  8
TOPSOLDER
 10
0.0122835
 20
-0.019685
 30
0.0
 11
0.0477165
 21
-0.019685
 31
0.0
  0
LINE
  5
C99
  8
TOPSOLDER
 10
-0.0122835
 20
-0.019685
 30
0.0
 11
-0.0122835
 21
0.019685
 31
0.0
  0
LINE
  5
C9A
  8
TOPSOLDER
 10
-0.0122835
 20
0.019685
 30
0.0
 11
-0.0477165
 21
0.019685
 31
0.0
  0
LINE
  5
C9B
  8
TOPSOLDER
 10
-0.0477165
 20
0.019685
 30
0.0
 11
-0.0477165
 21
-0.019685
 31
0.0
  0
LINE
  5
C9C
  8
TOPSOLDER
 10
-0.0477165
 20
-0.019685
 30
0.0
 11
-0.0122835
 21
-0.019685
 31
0.0
  0
ENDBLK
  5
C94
  8
0
  0
BLOCK
  8
0
  2
R0603_B_270
 70
     0
 10
0.0
 20
0.0
 30
0.0
  3
R0603_B_270
  1

  0
ENDBLK
  5
CA0
  8
0
  0
BLOCK
  8
0
  2
R0603_271
 70
     0
 10
0.0
 20
0.0
 30
0.0
  3
R0603_271
  1

  0
LINE
  5
CA5
  8
TOPSOLDER
 10
0.0477165
 20
-0.019685
 30
0.0
 11
0.0477165
 21
0.019685
 31
0.0
  0
LINE
  5
CA6
  8
TOPSOLDER
 10
0.0477165
 20
0.019685
 30
0.0
 11
0.0122835
 21
0.019685
 31
0.0
  0
LINE
  5
CA7
  8
TOPSOLDER
 10
0.0122835
 20
0.019685
 30
0.0
 11
0.0122835
 21
-0.019685
 31
0.0
  0
LINE
  5
CA8
  8
TOPSOLDER
 10
0.0122835
 20
-0.019685
 30
0.0
 11
0.0477165
 21
-0.019685
 31
0.0
  0
LINE
  5
CA9
  8
TOPSOLDER
 10
-0.0122835
 20
-0.019685
 30
0.0
 11
-0.0122835
 21
0.019685
 31
0.0
  0
LINE
  5
CAA
  8
TOPSOLDER
 10
-0.0122835
 20
0.019685
 30
0.0
 11
-0.0477165
 21
0.019685
 31
0.0
  0
LINE
  5
CAB
  8
TOPSOLDER
 10
-0.0477165
 20
0.019685
 30
0.0
 11
-0.0477165
 21
-0.019685
 31
0.0
  0
LINE
  5
CAC
  8
TOPSOLDER
 10
-0.0477165
 20
-0.019685
 30
0.0
 11
-0.0122835
 21
-0.019685
 31
0.0
  0
ENDBLK
  5
CA4
  8
0
  0
BLOCK
  8
0
  2
R0603_272
 70
     0
 10
0.0
 20
0.0
 30
0.0
  3
R0603_272
  1

  0
LINE
  5
CB1
  8
TOPSOLDER
 10
0.0477165
 20
-0.019685
 30
0.0
 11
0.0477165
 21
0.019685
 31
0.0
  0
LINE
  5
CB2
  8
TOPSOLDER
 10
0.0477165
 20
0.019685
 30
0.0
 11
0.0122835
 21
0.019685
 31
0.0
  0
LINE
  5
CB3
  8
TOPSOLDER
 10
0.0122835
 20
0.019685
 30
0.0
 11
0.0122835
 21
-0.019685
 31
0.0
  0
LINE
  5
CB4
  8
TOPSOLDER
 10
0.0122835
 20
-0.019685
 30
0.0
 11
0.0477165
 21
-0.019685
 31
0.0
  0
LINE
  5
CB5
  8
TOPSOLDER
 10
-0.0122835
 20
-0.019685
 30
0.0
 11
-0.0122835
 21
0.019685
 31
0.0
  0
LINE
  5
CB6
  8
TOPSOLDER
 10
-0.0122835
 20
0.019685
 30
0.0
 11
-0.0477165
 21
0.019685
 31
0.0
  0
LINE
  5
CB7
  8
TOPSOLDER
 10
-0.0477165
 20
0.019685
 30
0.0
 11
-0.0477165
 21
-0.019685
 31
0.0
  0
LINE
  5
CB8
  8
TOPSOLDER
 10
-0.0477165
 20
-0.019685
 30
0.0
 11
-0.0122835
 21
-0.019685
 31
0.0
  0
ENDBLK
  5
CB0
  8
0
  0
BLOCK
  8
0
  2
R0603_273
 70
     0
 10
0.0
 20
0.0
 30
0.0
  3
R0603_273
  1

  0
LINE
  5
CBD
  8
TOPSOLDER
 10
-0.0477165
 20
0.019685
 30
0.0
 11
-0.0477165
 21
-0.019685
 31
0.0
  0
LINE
  5
CBE
  8
TOPSOLDER
 10
-0.0477165
 20
-0.019685
 30
0.0
 11
-0.0122835
 21
-0.019685
 31
0.0
  0
LINE
  5
CBF
  8
TOPSOLDER
 10
-0.0122835
 20
-0.019685
 30
0.0
 11
-0.0122835
 21
0.019685
 31
0.0
  0
LINE
  5
CC0
  8
TOPSOLDER
 10
-0.0122835
 20
0.019685
 30
0.0
 11
-0.0477165
 21
0.019685
 31
0.0
  0
LINE
  5
CC1
  8
TOPSOLDER
 10
0.0122835
 20
0.019685
 30
0.0
 11
0.0122835
 21
-0.019685
 31
0.0
  0
LINE
  5
CC2
  8
TOPSOLDER
 10
0.0122835
 20
-0.019685
 30
0.0
 11
0.0477165
 21
-0.019685
 31
0.0
  0
LINE
  5
CC3
  8
TOPSOLDER
 10
0.0477165
 20
-0.019685
 30
0.0
 11
0.0477165
 21
0.019685
 31
0.0
  0
LINE
  5
CC4
  8
TOPSOLDER
 10
0.0477165
 20
0.019685
 30
0.0
 11
0.0122835
 21
0.019685
 31
0.0
  0
ENDBLK
  5
CBC
  8
0
  0
BLOCK
  8
0
  2
R0603_B_274
 70
     0
 10
0.0
 20
0.0
 30
0.0
  3
R0603_B_274
  1

  0
ENDBLK
  5
CC8
  8
0
  0
BLOCK
  8
0
  2
R0603_B_275
 70
     0
 10
0.0
 20
0.0
 30
0.0
  3
R0603_B_275
  1

  0
ENDBLK
  5
CCC
  8
0
  0
BLOCK
  8
0
  2
R0603_B_276
 70
     0
 10
0.0
 20
0.0
 30
0.0
  3
R0603_B_276
  1

  0
ENDBLK
  5
CD0
  8
0
  0
BLOCK
  8
0
  2
R0603_277
 70
     0
 10
0.0
 20
0.0
 30
0.0
  3
R0603_277
  1

  0
LINE
  5
CD5
  8
TOPSOLDER
 10
-0.0477165
 20
0.019685
 30
0.0
 11
-0.0477165
 21
-0.019685
 31
0.0
  0
LINE
  5
CD6
  8
TOPSOLDER
 10
-0.0477165
 20
-0.019685
 30
0.0
 11
-0.0122835
 21
-0.019685
 31
0.0
  0
LINE
  5
CD7
  8
TOPSOLDER
 10
-0.0122835
 20
-0.019685
 30
0.0
 11
-0.0122835
 21
0.019685
 31
0.0
  0
LINE
  5
CD8
  8
TOPSOLDER
 10
-0.0122835
 20
0.019685
 30
0.0
 11
-0.0477165
 21
0.019685
 31
0.0
  0
LINE
  5
CD9
  8
TOPSOLDER
 10
0.0122835
 20
0.019685
 30
0.0
 11
0.0122835
 21
-0.019685
 31
0.0
  0
LINE
  5
CDA
  8
TOPSOLDER
 10
0.0122835
 20
-0.019685
 30
0.0
 11
0.0477165
 21
-0.019685
 31
0.0
  0
LINE
  5
CDB
  8
TOPSOLDER
 10
0.0477165
 20
-0.019685
 30
0.0
 11
0.0477165
 21
0.019685
 31
0.0
  0
LINE
  5
CDC
  8
TOPSOLDER
 10
0.0477165
 20
0.019685
 30
0.0
 11
0.0122835
 21
0.019685
 31
0.0
  0
ENDBLK
  5
CD4
  8
0
  0
BLOCK
  8
0
  2
CAY16_J4_B_278
 70
     0
 10
0.0
 20
0.0
 30
0.0
  3
CAY16_J4_B_278
  1

  0
ENDBLK
  5
CE0
  8
0
  0
BLOCK
  8
0
  2
HC49_279
 70
     0
 10
0.0
 20
0.0
 30
0.0
  3
HC49_279
  1

  0
CIRCLE
  5
CE5
  8
TOPSOLDER
 10
-0.195
 20
0.0
 30
0.0
 40
0.0413386
  0
CIRCLE
  5
CE6
  8
TOPSOLDER
 10
0.0
 20
0.0
 30
0.0
 40
0.0413386
  0
ENDBLK
  5
CE4
  8
0
  0
BLOCK
  8
0
  2
TC_38_280
 70
     0
 10
0.0
 20
0.0
 30
0.0
  3
TC_38_280
  1

  0
LINE
  5
CEB
  8
TOPSOLDER
 10
-0.0320485
 20
0.4665455
 30
0.0
 11
-0.0320485
 21
0.1026085
 31
0.0
  0
LINE
  5
CEC
  8
TOPSOLDER
 10
-0.0320485
 20
0.1026085
 30
0.0
 11
0.0918885
 21
0.1026085
 31
0.0
  0
LINE
  5
CED
  8
TOPSOLDER
 10
0.0918885
 20
0.1026085
 30
0.0
 11
0.0918885
 21
0.4665455
 31
0.0
  0
LINE
  5
CEE
  8
TOPSOLDER
 10
0.0918885
 20
0.4665455
 30
0.0
 11
-0.0320485
 21
0.4665455
 31
0.0
  0
CIRCLE
  5
CEF
  8
TOPSOLDER
 10
0.05992
 20
-0.000423
 30
0.0
 40
0.0269685
  0
CIRCLE
  5
CF0
  8
TOPSOLDER
 10
-0.00008
 20
-0.000423
 30
0.0
 40
0.0269685
  0
ENDBLK
  5
CEA
  8
0
  0
BLOCK
  8
0
  2
D0805_281
 70
     0
 10
0.0
 20
0.0
 30
0.0
  3
D0805_281
  1

  0
LINE
  5
CF5
  8
TOPSOLDER
 10
0.0215748
 20
0.0277992
 30
0.0
 11
0.0215748
 21
-0.0281378
 31
0.0
  0
LINE
  5
CF6
  8
TOPSOLDER
 10
0.0215748
 20
-0.0281378
 30
0.0
 11
0.0655118
 21
-0.0281378
 31
0.0
  0
LINE
  5
CF7
  8
TOPSOLDER
 10
0.0655118
 20
-0.0281378
 30
0.0
 11
0.0655118
 21
0.0277992
 31
0.0
  0
LINE
  5
CF8
  8
TOPSOLDER
 10
0.0655118
 20
0.0277992
 30
0.0
 11
0.0215748
 21
0.0277992
 31
0.0
  0
LINE
  5
CF9
  8
TOPSOLDER
 10
-0.0664252
 20
0.0277992
 30
0.0
 11
-0.0664252
 21
-0.0281378
 31
0.0
  0
LINE
  5
CFA
  8
TOPSOLDER
 10
-0.0664252
 20
-0.0281378
 30
0.0
 11
-0.0224882
 21
-0.0281378
 31
0.0
  0
LINE
  5
CFB
  8
TOPSOLDER
 10
-0.0224882
 20
-0.0281378
 30
0.0
 11
-0.0224882
 21
0.0277992
 31
0.0
  0
LINE
  5
CFC
  8
TOPSOLDER
 10
-0.0224882
 20
0.0277992
 30
0.0
 11
-0.0664252
 21
0.0277992
 31
0.0
  0
ENDBLK
  5
CF4
  8
0
  0
BLOCK
  8
0
  2
R0603_282
 70
     0
 10
0.0
 20
0.0
 30
0.0
  3
R0603_282
  1

  0
LINE
  5
D01
  8
TOPSOLDER
 10
0.0477165
 20
-0.019685
 30
0.0
 11
0.0477165
 21
0.019685
 31
0.0
  0
LINE
  5
D02
  8
TOPSOLDER
 10
0.0477165
 20
0.019685
 30
0.0
 11
0.0122835
 21
0.019685
 31
0.0
  0
LINE
  5
D03
  8
TOPSOLDER
 10
0.0122835
 20
0.019685
 30
0.0
 11
0.0122835
 21
-0.019685
 31
0.0
  0
LINE
  5
D04
  8
TOPSOLDER
 10
0.0122835
 20
-0.019685
 30
0.0
 11
0.0477165
 21
-0.019685
 31
0.0
  0
LINE
  5
D05
  8
TOPSOLDER
 10
-0.0122835
 20
-0.019685
 30
0.0
 11
-0.0122835
 21
0.019685
 31
0.0
  0
LINE
  5
D06
  8
TOPSOLDER
 10
-0.0122835
 20
0.019685
 30
0.0
 11
-0.0477165
 21
0.019685
 31
0.0
  0
LINE
  5
D07
  8
TOPSOLDER
 10
-0.0477165
 20
0.019685
 30
0.0
 11
-0.0477165
 21
-0.019685
 31
0.0
  0
LINE
  5
D08
  8
TOPSOLDER
 10
-0.0477165
 20
-0.019685
 30
0.0
 11
-0.0122835
 21
-0.019685
 31
0.0
  0
ENDBLK
  5
D00
  8
0
  0
BLOCK
  8
0
  2
R0402_283
 70
     0
 10
0.0
 20
0.0
 30
0.0
  3
R0402_283
  1

  0
LINE
  5
D0D
  8
TOPSOLDER
 10
-0.0334645
 20
0.015748
 30
0.0
 11
-0.0334645
 21
-0.015748
 31
0.0
  0
LINE
  5
D0E
  8
TOPSOLDER
 10
-0.0334645
 20
-0.015748
 30
0.0
 11
-0.0059055
 21
-0.015748
 31
0.0
  0
LINE
  5
D0F
  8
TOPSOLDER
 10
-0.0059055
 20
-0.015748
 30
0.0
 11
-0.0059055
 21
0.015748
 31
0.0
  0
LINE
  5
D10
  8
TOPSOLDER
 10
-0.0059055
 20
0.015748
 30
0.0
 11
-0.0334645
 21
0.015748
 31
0.0
  0
LINE
  5
D11
  8
TOPSOLDER
 10
0.0059055
 20
0.015748
 30
0.0
 11
0.0059055
 21
-0.015748
 31
0.0
  0
LINE
  5
D12
  8
TOPSOLDER
 10
0.0059055
 20
-0.015748
 30
0.0
 11
0.0334645
 21
-0.015748
 31
0.0
  0
LINE
  5
D13
  8
TOPSOLDER
 10
0.0334645
 20
-0.015748
 30
0.0
 11
0.0334645
 21
0.015748
 31
0.0
  0
LINE
  5
D14
  8
TOPSOLDER
 10
0.0334645
 20
0.015748
 30
0.0
 11
0.0059055
 21
0.015748
 31
0.0
  0
ENDBLK
  5
D0C
  8
0
  0
BLOCK
  8
0
  2
R0402_284
 70
     0
 10
0.0
 20
0.0
 30
0.0
  3
R0402_284
  1

  0
LINE
  5
D19
  8
TOPSOLDER
 10
-0.0334645
 20
0.015748
 30
0.0
 11
-0.0334645
 21
-0.015748
 31
0.0
  0
LINE
  5
D1A
  8
TOPSOLDER
 10
-0.0334645
 20
-0.015748
 30
0.0
 11
-0.0059055
 21
-0.015748
 31
0.0
  0
LINE
  5
D1B
  8
TOPSOLDER
 10
-0.0059055
 20
-0.015748
 30
0.0
 11
-0.0059055
 21
0.015748
 31
0.0
  0
LINE
  5
D1C
  8
TOPSOLDER
 10
-0.0059055
 20
0.015748
 30
0.0
 11
-0.0334645
 21
0.015748
 31
0.0
  0
LINE
  5
D1D
  8
TOPSOLDER
 10
0.0059055
 20
0.015748
 30
0.0
 11
0.0059055
 21
-0.015748
 31
0.0
  0
LINE
  5
D1E
  8
TOPSOLDER
 10
0.0059055
 20
-0.015748
 30
0.0
 11
0.0334645
 21
-0.015748
 31
0.0
  0
LINE
  5
D1F
  8
TOPSOLDER
 10
0.0334645
 20
-0.015748
 30
0.0
 11
0.0334645
 21
0.015748
 31
0.0
  0
LINE
  5
D20
  8
TOPSOLDER
 10
0.0334645
 20
0.015748
 30
0.0
 11
0.0059055
 21
0.015748
 31
0.0
  0
ENDBLK
  5
D18
  8
0
  0
BLOCK
  8
0
  2
R0402_285
 70
     0
 10
0.0
 20
0.0
 30
0.0
  3
R0402_285
  1

  0
LINE
  5
D25
  8
TOPSOLDER
 10
-0.0334645
 20
0.015748
 30
0.0
 11
-0.0334645
 21
-0.015748
 31
0.0
  0
LINE
  5
D26
  8
TOPSOLDER
 10
-0.0334645
 20
-0.015748
 30
0.0
 11
-0.0059055
 21
-0.015748
 31
0.0
  0
LINE
  5
D27
  8
TOPSOLDER
 10
-0.0059055
 20
-0.015748
 30
0.0
 11
-0.0059055
 21
0.015748
 31
0.0
  0
LINE
  5
D28
  8
TOPSOLDER
 10
-0.0059055
 20
0.015748
 30
0.0
 11
-0.0334645
 21
0.015748
 31
0.0
  0
LINE
  5
D29
  8
TOPSOLDER
 10
0.0059055
 20
0.015748
 30
0.0
 11
0.0059055
 21
-0.015748
 31
0.0
  0
LINE
  5
D2A
  8
TOPSOLDER
 10
0.0059055
 20
-0.015748
 30
0.0
 11
0.0334645
 21
-0.015748
 31
0.0
  0
LINE
  5
D2B
  8
TOPSOLDER
 10
0.0334645
 20
-0.015748
 30
0.0
 11
0.0334645
 21
0.015748
 31
0.0
  0
LINE
  5
D2C
  8
TOPSOLDER
 10
0.0334645
 20
0.015748
 30
0.0
 11
0.0059055
 21
0.015748
 31
0.0
  0
ENDBLK
  5
D24
  8
0
  0
BLOCK
  8
0
  2
C0603_B_286
 70
     0
 10
0.0
 20
0.0
 30
0.0
  3
C0603_B_286
  1

  0
ENDBLK
  5
D30
  8
0
  0
BLOCK
  8
0
  2
C0603_B_287
 70
     0
 10
0.0
 20
0.0
 30
0.0
  3
C0603_B_287
  1

  0
ENDBLK
  5
D34
  8
0
  0
BLOCK
  8
0
  2
C0603_B_288
 70
     0
 10
0.0
 20
0.0
 30
0.0
  3
C0603_B_288
  1

  0
ENDBLK
  5
D38
  8
0
  0
BLOCK
  8
0
  2
SOT323_B_289
 70
     0
 10
0.0
 20
0.0
 30
0.0
  3
SOT323_B_289
  1

  0
ENDBLK
  5
D3C
  8
0
  0
BLOCK
  8
0
  2
R0603_B_290
 70
     0
 10
0.0
 20
0.0
 30
0.0
  3
R0603_B_290
  1

  0
ENDBLK
  5
D40
  8
0
  0
BLOCK
  8
0
  2
R0603_B_291
 70
     0
 10
0.0
 20
0.0
 30
0.0
  3
R0603_B_291
  1

  0
ENDBLK
  5
D44
  8
0
  0
BLOCK
  8
0
  2
R0603_B_292
 70
     0
 10
0.0
 20
0.0
 30
0.0
  3
R0603_B_292
  1

  0
ENDBLK
  5
D48
  8
0
  0
BLOCK
  8
0
  2
R0603_B_293
 70
     0
 10
0.0
 20
0.0
 30
0.0
  3
R0603_B_293
  1

  0
ENDBLK
  5
D4C
  8
0
  0
BLOCK
  8
0
  2
R1206_B_294
 70
     0
 10
0.0
 20
0.0
 30
0.0
  3
R1206_B_294
  1

  0
ENDBLK
  5
D50
  8
0
  0
BLOCK
  8
0
  2
R1206_B_295
 70
     0
 10
0.0
 20
0.0
 30
0.0
  3
R1206_B_295
  1

  0
ENDBLK
  5
D54
  8
0
  0
BLOCK
  8
0
  2
R0603_296
 70
     0
 10
0.0
 20
0.0
 30
0.0
  3
R0603_296
  1

  0
LINE
  5
D59
  8
TOPSOLDER
 10
-0.0477164
 20
0.019685
 30
0.0
 11
-0.0477164
 21
-0.019685
 31
0.0
  0
LINE
  5
D5A
  8
TOPSOLDER
 10
-0.0477164
 20
-0.019685
 30
0.0
 11
-0.0122834
 21
-0.019685
 31
0.0
  0
LINE
  5
D5B
  8
TOPSOLDER
 10
-0.0122834
 20
-0.019685
 30
0.0
 11
-0.0122834
 21
0.019685
 31
0.0
  0
LINE
  5
D5C
  8
TOPSOLDER
 10
-0.0122834
 20
0.019685
 30
0.0
 11
-0.0477164
 21
0.019685
 31
0.0
  0
LINE
  5
D5D
  8
TOPSOLDER
 10
0.0122835
 20
0.0196851
 30
0.0
 11
0.0122835
 21
-0.0196849
 31
0.0
  0
LINE
  5
D5E
  8
TOPSOLDER
 10
0.0122835
 20
-0.0196849
 30
0.0
 11
0.0477165
 21
-0.0196849
 31
0.0
  0
LINE
  5
D5F
  8
TOPSOLDER
 10
0.0477165
 20
-0.0196849
 30
0.0
 11
0.0477165
 21
0.0196851
 31
0.0
  0
LINE
  5
D60
  8
TOPSOLDER
 10
0.0477165
 20
0.0196851
 30
0.0
 11
0.0122835
 21
0.0196851
 31
0.0
  0
ENDBLK
  5
D58
  8
0
  0
BLOCK
  8
0
  2
R0603_297
 70
     0
 10
0.0
 20
0.0
 30
0.0
  3
R0603_297
  1

  0
LINE
  5
D65
  8
TOPSOLDER
 10
0.0477165
 20
-0.019685
 30
0.0
 11
0.0477165
 21
0.019685
 31
0.0
  0
LINE
  5
D66
  8
TOPSOLDER
 10
0.0477165
 20
0.019685
 30
0.0
 11
0.0122835
 21
0.019685
 31
0.0
  0
LINE
  5
D67
  8
TOPSOLDER
 10
0.0122835
 20
0.019685
 30
0.0
 11
0.0122835
 21
-0.019685
 31
0.0
  0
LINE
  5
D68
  8
TOPSOLDER
 10
0.0122835
 20
-0.019685
 30
0.0
 11
0.0477165
 21
-0.019685
 31
0.0
  0
LINE
  5
D69
  8
TOPSOLDER
 10
-0.0122835
 20
-0.019685
 30
0.0
 11
-0.0122835
 21
0.019685
 31
0.0
  0
LINE
  5
D6A
  8
TOPSOLDER
 10
-0.0122835
 20
0.019685
 30
0.0
 11
-0.0477165
 21
0.019685
 31
0.0
  0
LINE
  5
D6B
  8
TOPSOLDER
 10
-0.0477165
 20
0.019685
 30
0.0
 11
-0.0477165
 21
-0.019685
 31
0.0
  0
LINE
  5
D6C
  8
TOPSOLDER
 10
-0.0477165
 20
-0.019685
 30
0.0
 11
-0.0122835
 21
-0.019685
 31
0.0
  0
ENDBLK
  5
D64
  8
0
  0
BLOCK
  8
0
  2
R0603_298
 70
     0
 10
0.0
 20
0.0
 30
0.0
  3
R0603_298
  1

  0
LINE
  5
D71
  8
TOPSOLDER
 10
-0.0477165
 20
0.019685
 30
0.0
 11
-0.0477165
 21
-0.019685
 31
0.0
  0
LINE
  5
D72
  8
TOPSOLDER
 10
-0.0477165
 20
-0.019685
 30
0.0
 11
-0.0122835
 21
-0.019685
 31
0.0
  0
LINE
  5
D73
  8
TOPSOLDER
 10
-0.0122835
 20
-0.019685
 30
0.0
 11
-0.0122835
 21
0.019685
 31
0.0
  0
LINE
  5
D74
  8
TOPSOLDER
 10
-0.0122835
 20
0.019685
 30
0.0
 11
-0.0477165
 21
0.019685
 31
0.0
  0
LINE
  5
D75
  8
TOPSOLDER
 10
0.0122835
 20
0.019685
 30
0.0
 11
0.0122835
 21
-0.019685
 31
0.0
  0
LINE
  5
D76
  8
TOPSOLDER
 10
0.0122835
 20
-0.019685
 30
0.0
 11
0.0477165
 21
-0.019685
 31
0.0
  0
LINE
  5
D77
  8
TOPSOLDER
 10
0.0477165
 20
-0.019685
 30
0.0
 11
0.0477165
 21
0.019685
 31
0.0
  0
LINE
  5
D78
  8
TOPSOLDER
 10
0.0477165
 20
0.019685
 30
0.0
 11
0.0122835
 21
0.019685
 31
0.0
  0
ENDBLK
  5
D70
  8
0
  0
BLOCK
  8
0
  2
C0603_B_299
 70
     0
 10
0.0
 20
0.0
 30
0.0
  3
C0603_B_299
  1

  0
ENDBLK
  5
D7C
  8
0
  0
BLOCK
  8
0
  2
C0603_B_300
 70
     0
 10
0.0
 20
0.0
 30
0.0
  3
C0603_B_300
  1

  0
ENDBLK
  5
D80
  8
0
  0
BLOCK
  8
0
  2
C0603_B_301
 70
     0
 10
0.0
 20
0.0
 30
0.0
  3
C0603_B_301
  1

  0
ENDBLK
  5
D84
  8
0
  0
BLOCK
  8
0
  2
C0603_B_302
 70
     0
 10
0.0
 20
0.0
 30
0.0
  3
C0603_B_302
  1

  0
ENDBLK
  5
D88
  8
0
  0
BLOCK
  8
0
  2
TAJA_303
 70
     0
 10
0.0
 20
0.0
 30
0.0
  3
TAJA_303
  1

  0
LINE
  5
D8D
  8
TOPSOLDER
 10
-0.0255905
 20
-0.0984645
 30
0.0
 11
0.0255905
 21
-0.0984645
 31
0.0
  0
LINE
  5
D8E
  8
TOPSOLDER
 10
0.0255905
 20
-0.0984645
 30
0.0
 11
0.0255905
 21
-0.0315355
 31
0.0
  0
LINE
  5
D8F
  8
TOPSOLDER
 10
0.0255905
 20
-0.0315355
 30
0.0
 11
-0.0255905
 21
-0.0315355
 31
0.0
  0
LINE
  5
D90
  8
TOPSOLDER
 10
-0.0255905
 20
-0.0315355
 30
0.0
 11
-0.0255905
 21
-0.0984645
 31
0.0
  0
LINE
  5
D91
  8
TOPSOLDER
 10
-0.0255905
 20
0.0315355
 30
0.0
 11
0.0255905
 21
0.0315355
 31
0.0
  0
LINE
  5
D92
  8
TOPSOLDER
 10
0.0255905
 20
0.0315355
 30
0.0
 11
0.0255905
 21
0.0984645
 31
0.0
  0
LINE
  5
D93
  8
TOPSOLDER
 10
0.0255905
 20
0.0984645
 30
0.0
 11
-0.0255905
 21
0.0984645
 31
0.0
  0
LINE
  5
D94
  8
TOPSOLDER
 10
-0.0255905
 20
0.0984645
 30
0.0
 11
-0.0255905
 21
0.0315355
 31
0.0
  0
ENDBLK
  5
D8C
  8
0
  0
BLOCK
  8
0
  2
C0603_B_304
 70
     0
 10
0.0
 20
0.0
 30
0.0
  3
C0603_B_304
  1

  0
ENDBLK
  5
D98
  8
0
  0
BLOCK
  8
0
  2
C0603_B_305
 70
     0
 10
0.0
 20
0.0
 30
0.0
  3
C0603_B_305
  1

  0
ENDBLK
  5
D9C
  8
0
  0
BLOCK
  8
0
  2
C0805_B_306
 70
     0
 10
0.0
 20
0.0
 30
0.0
  3
C0805_B_306
  1

  0
ENDBLK
  5
DA0
  8
0
  0
BLOCK
  8
0
  2
TAJC_B_307
 70
     0
 10
0.0
 20
0.0
 30
0.0
  3
TAJC_B_307
  1

  0
ENDBLK
  5
DA4
  8
0
  0
BLOCK
  8
0
  2
TAJA_B_308
 70
     0
 10
0.0
 20
0.0
 30
0.0
  3
TAJA_B_308
  1

  0
ENDBLK
  5
DA8
  8
0
  0
BLOCK
  8
0
  2
C0805_B_309
 70
     0
 10
0.0
 20
0.0
 30
0.0
  3
C0805_B_309
  1

  0
ENDBLK
  5
DAC
  8
0
  0
BLOCK
  8
0
  2
C0603_B_310
 70
     0
 10
0.0
 20
0.0
 30
0.0
  3
C0603_B_310
  1

  0
ENDBLK
  5
DB0
  8
0
  0
BLOCK
  8
0
  2
C0603_B_311
 70
     0
 10
0.0
 20
0.0
 30
0.0
  3
C0603_B_311
  1

  0
ENDBLK
  5
DB4
  8
0
  0
BLOCK
  8
0
  2
C0805_B_312
 70
     0
 10
0.0
 20
0.0
 30
0.0
  3
C0805_B_312
  1

  0
ENDBLK
  5
DB8
  8
0
  0
BLOCK
  8
0
  2
DO214AA_B_313
 70
     0
 10
0.0
 20
0.0
 30
0.0
  3
DO214AA_B_313
  1

  0
ENDBLK
  5
DBC
  8
0
  0
BLOCK
  8
0
  2
QFN_36__LT3957__B_314
 70
     0
 10
0.0
 20
0.0
 30
0.0
  3
QFN_36__LT3957__B_314
  1

  0
ENDBLK
  5
DC0
  8
0
  0
BLOCK
  8
0
  2
MSOP_10_B_315
 70
     0
 10
0.0
 20
0.0
 30
0.0
  3
MSOP_10_B_315
  1

  0
ENDBLK
  5
DC4
  8
0
  0
BLOCK
  8
0
  2
SDR0604_1_316
 70
     0
 10
0.0
 20
0.0
 30
0.0
  3
SDR0604_1_316
  1

  0
LINE
  5
DC9
  8
TOPSOLDER
 10
-0.1043307
 20
-0.1220473
 30
0.0
 11
0.1082677
 21
-0.1220473
 31
0.0
  0
LINE
  5
DCA
  8
TOPSOLDER
 10
0.1082677
 20
-0.1220473
 30
0.0
 11
0.1082677
 21
-0.0354331
 31
0.0
  0
LINE
  5
DCB
  8
TOPSOLDER
 10
0.1082677
 20
-0.0354331
 30
0.0
 11
-0.1043307
 21
-0.0354331
 31
0.0
  0
LINE
  5
DCC
  8
TOPSOLDER
 10
-0.1043307
 20
-0.0354331
 30
0.0
 11
-0.1043307
 21
-0.1220473
 31
0.0
  0
LINE
  5
DCD
  8
TOPSOLDER
 10
-0.1062992
 20
0.0354331
 30
0.0
 11
0.1062992
 21
0.0354331
 31
0.0
  0
LINE
  5
DCE
  8
TOPSOLDER
 10
0.1062992
 20
0.0354331
 30
0.0
 11
0.1062992
 21
0.1220473
 31
0.0
  0
LINE
  5
DCF
  8
TOPSOLDER
 10
0.1062992
 20
0.1220473
 30
0.0
 11
-0.1062992
 21
0.1220473
 31
0.0
  0
LINE
  5
DD0
  8
TOPSOLDER
 10
-0.1062992
 20
0.1220473
 30
0.0
 11
-0.1062992
 21
0.0354331
 31
0.0
  0
ENDBLK
  5
DC8
  8
0
  0
BLOCK
  8
0
  2
R0603_B_317
 70
     0
 10
0.0
 20
0.0
 30
0.0
  3
R0603_B_317
  1

  0
ENDBLK
  5
DD4
  8
0
  0
BLOCK
  8
0
  2
R1206_B_318
 70
     0
 10
0.0
 20
0.0
 30
0.0
  3
R1206_B_318
  1

  0
ENDBLK
  5
DD8
  8
0
  0
BLOCK
  8
0
  2
R1206_B_319
 70
     0
 10
0.0
 20
0.0
 30
0.0
  3
R1206_B_319
  1

  0
ENDBLK
  5
DDC
  8
0
  0
BLOCK
  8
0
  2
R1206_B_320
 70
     0
 10
0.0
 20
0.0
 30
0.0
  3
R1206_B_320
  1

  0
ENDBLK
  5
DE0
  8
0
  0
BLOCK
  8
0
  2
R1206_B_321
 70
     0
 10
0.0
 20
0.0
 30
0.0
  3
R1206_B_321
  1

  0
ENDBLK
  5
DE4
  8
0
  0
BLOCK
  8
0
  2
R0603_B_322
 70
     0
 10
0.0
 20
0.0
 30
0.0
  3
R0603_B_322
  1

  0
ENDBLK
  5
DE8
  8
0
  0
BLOCK
  8
0
  2
R0603_B_323
 70
     0
 10
0.0
 20
0.0
 30
0.0
  3
R0603_B_323
  1

  0
ENDBLK
  5
DEC
  8
0
  0
BLOCK
  8
0
  2
R0603_B_324
 70
     0
 10
0.0
 20
0.0
 30
0.0
  3
R0603_B_324
  1

  0
ENDBLK
  5
DF0
  8
0
  0
BLOCK
  8
0
  2
R1206_B_325
 70
     0
 10
0.0
 20
0.0
 30
0.0
  3
R1206_B_325
  1

  0
ENDBLK
  5
DF4
  8
0
  0
BLOCK
  8
0
  2
R0603_326
 70
     0
 10
0.0
 20
0.0
 30
0.0
  3
R0603_326
  1

  0
LINE
  5
DF9
  8
TOPSOLDER
 10
-0.0122835
 20
-0.019685
 30
0.0
 11
-0.0122835
 21
0.019685
 31
0.0
  0
LINE
  5
DFA
  8
TOPSOLDER
 10
-0.0122835
 20
0.019685
 30
0.0
 11
-0.0477165
 21
0.019685
 31
0.0
  0
LINE
  5
DFB
  8
TOPSOLDER
 10
-0.0477165
 20
0.019685
 30
0.0
 11
-0.0477165
 21
-0.019685
 31
0.0
  0
LINE
  5
DFC
  8
TOPSOLDER
 10
-0.0477165
 20
-0.019685
 30
0.0
 11
-0.0122835
 21
-0.019685
 31
0.0
  0
LINE
  5
DFD
  8
TOPSOLDER
 10
0.0477165
 20
-0.019685
 30
0.0
 11
0.0477165
 21
0.019685
 31
0.0
  0
LINE
  5
DFE
  8
TOPSOLDER
 10
0.0477165
 20
0.019685
 30
0.0
 11
0.0122835
 21
0.019685
 31
0.0
  0
LINE
  5
DFF
  8
TOPSOLDER
 10
0.0122835
 20
0.019685
 30
0.0
 11
0.0122835
 21
-0.019685
 31
0.0
  0
LINE
  5
E00
  8
TOPSOLDER
 10
0.0122835
 20
-0.019685
 30
0.0
 11
0.0477165
 21
-0.019685
 31
0.0
  0
ENDBLK
  5
DF8
  8
0
  0
BLOCK
  8
0
  2
R0603_B_327
 70
     0
 10
0.0
 20
0.0
 30
0.0
  3
R0603_B_327
  1

  0
ENDBLK
  5
E04
  8
0
  0
BLOCK
  8
0
  2
R0603_B_328
 70
     0
 10
0.0
 20
0.0
 30
0.0
  3
R0603_B_328
  1

  0
ENDBLK
  5
E08
  8
0
  0
BLOCK
  8
0
  2
R0603_B_329
 70
     0
 10
0.0
 20
0.0
 30
0.0
  3
R0603_B_329
  1

  0
ENDBLK
  5
E0C
  8
0
  0
BLOCK
  8
0
  2
R0603_B_330
 70
     0
 10
0.0
 20
0.0
 30
0.0
  3
R0603_B_330
  1

  0
ENDBLK
  5
E10
  8
0
  0
BLOCK
  8
0
  2
R0603_B_331
 70
     0
 10
0.0
 20
0.0
 30
0.0
  3
R0603_B_331
  1

  0
ENDBLK
  5
E14
  8
0
  0
BLOCK
  8
0
  2
R0603_B_332
 70
     0
 10
0.0
 20
0.0
 30
0.0
  3
R0603_B_332
  1

  0
ENDBLK
  5
E18
  8
0
  0
BLOCK
  8
0
  2
R0603_B_333
 70
     0
 10
0.0
 20
0.0
 30
0.0
  3
R0603_B_333
  1

  0
ENDBLK
  5
E1C
  8
0
  0
BLOCK
  8
0
  2
SOT23_B_334
 70
     0
 10
0.0
 20
0.0
 30
0.0
  3
SOT23_B_334
  1

  0
ENDBLK
  5
E20
  8
0
  0
BLOCK
  8
0
  2
R0603_B_335
 70
     0
 10
0.0
 20
0.0
 30
0.0
  3
R0603_B_335
  1

  0
ENDBLK
  5
E24
  8
0
  0
BLOCK
  8
0
  2
C0603_336
 70
     0
 10
0.0
 20
0.0
 30
0.0
  3
C0603_336
  1

  0
LINE
  5
E29
  8
TOPSOLDER
 10
-0.0122835
 20
-0.019685
 30
0.0
 11
-0.0122835
 21
0.019685
 31
0.0
  0
LINE
  5
E2A
  8
TOPSOLDER
 10
-0.0122835
 20
0.019685
 30
0.0
 11
-0.0477165
 21
0.019685
 31
0.0
  0
LINE
  5
E2B
  8
TOPSOLDER
 10
-0.0477165
 20
0.019685
 30
0.0
 11
-0.0477165
 21
-0.019685
 31
0.0
  0
LINE
  5
E2C
  8
TOPSOLDER
 10
-0.0477165
 20
-0.019685
 30
0.0
 11
-0.0122835
 21
-0.019685
 31
0.0
  0
LINE
  5
E2D
  8
TOPSOLDER
 10
0.0477165
 20
-0.019685
 30
0.0
 11
0.0477165
 21
0.019685
 31
0.0
  0
LINE
  5
E2E
  8
TOPSOLDER
 10
0.0477165
 20
0.019685
 30
0.0
 11
0.0122835
 21
0.019685
 31
0.0
  0
LINE
  5
E2F
  8
TOPSOLDER
 10
0.0122835
 20
0.019685
 30
0.0
 11
0.0122835
 21
-0.019685
 31
0.0
  0
LINE
  5
E30
  8
TOPSOLDER
 10
0.0122835
 20
-0.019685
 30
0.0
 11
0.0477165
 21
-0.019685
 31
0.0
  0
ENDBLK
  5
E28
  8
0
  0
BLOCK
  8
0
  2
TAJA_337
 70
     0
 10
0.0
 20
0.0
 30
0.0
  3
TAJA_337
  1

  0
LINE
  5
E35
  8
TOPSOLDER
 10
0.0255905
 20
0.0984645
 30
0.0
 11
-0.0255905
 21
0.0984645
 31
0.0
  0
LINE
  5
E36
  8
TOPSOLDER
 10
-0.0255905
 20
0.0984645
 30
0.0
 11
-0.0255905
 21
0.0315355
 31
0.0
  0
LINE
  5
E37
  8
TOPSOLDER
 10
-0.0255905
 20
0.0315355
 30
0.0
 11
0.0255905
 21
0.0315355
 31
0.0
  0
LINE
  5
E38
  8
TOPSOLDER
 10
0.0255905
 20
0.0315355
 30
0.0
 11
0.0255905
 21
0.0984645
 31
0.0
  0
LINE
  5
E39
  8
TOPSOLDER
 10
0.0255905
 20
-0.0315355
 30
0.0
 11
-0.0255905
 21
-0.0315355
 31
0.0
  0
LINE
  5
E3A
  8
TOPSOLDER
 10
-0.0255905
 20
-0.0315355
 30
0.0
 11
-0.0255905
 21
-0.0984645
 31
0.0
  0
LINE
  5
E3B
  8
TOPSOLDER
 10
-0.0255905
 20
-0.0984645
 30
0.0
 11
0.0255905
 21
-0.0984645
 31
0.0
  0
LINE
  5
E3C
  8
TOPSOLDER
 10
0.0255905
 20
-0.0984645
 30
0.0
 11
0.0255905
 21
-0.0315355
 31
0.0
  0
ENDBLK
  5
E34
  8
0
  0
BLOCK
  8
0
  2
SOT23_5_338
 70
     0
 10
0.0
 20
0.0
 30
0.0
  3
SOT23_5_338
  1

  0
LINE
  5
E41
  8
TOPSOLDER
 10
0.0167323
 20
-0.0866142
 30
0.0
 11
-0.0167323
 21
-0.0866142
 31
0.0
  0
LINE
  5
E42
  8
TOPSOLDER
 10
-0.0167323
 20
-0.0866142
 30
0.0
 11
-0.0167323
 21
-0.1417322
 31
0.0
  0
LINE
  5
E43
  8
TOPSOLDER
 10
-0.0167323
 20
-0.1417322
 30
0.0
 11
0.0167323
 21
-0.1417322
 31
0.0
  0
LINE
  5
E44
  8
TOPSOLDER
 10
0.0167323
 20
-0.1417322
 30
0.0
 11
0.0167323
 21
-0.0866142
 31
0.0
  0
LINE
  5
E45
  8
TOPSOLDER
 10
-0.0620079
 20
-0.0866142
 30
0.0
 11
-0.0954725
 21
-0.0866142
 31
0.0
  0
LINE
  5
E46
  8
TOPSOLDER
 10
-0.0954725
 20
-0.0866142
 30
0.0
 11
-0.0954725
 21
-0.1417322
 31
0.0
  0
LINE
  5
E47
  8
TOPSOLDER
 10
-0.0954725
 20
-0.1417322
 30
0.0
 11
-0.0620079
 21
-0.1417322
 31
0.0
  0
LINE
  5
E48
  8
TOPSOLDER
 10
-0.0620079
 20
-0.1417322
 30
0.0
 11
-0.0620079
 21
-0.0866142
 31
0.0
  0
LINE
  5
E49
  8
TOPSOLDER
 10
-0.0620079
 20
0.023622
 30
0.0
 11
-0.0954725
 21
0.023622
 31
0.0
  0
LINE
  5
E4A
  8
TOPSOLDER
 10
-0.0954725
 20
0.023622
 30
0.0
 11
-0.0954725
 21
-0.031496
 31
0.0
  0
LINE
  5
E4B
  8
TOPSOLDER
 10
-0.0954725
 20
-0.031496
 30
0.0
 11
-0.0620079
 21
-0.031496
 31
0.0
  0
LINE
  5
E4C
  8
TOPSOLDER
 10
-0.0620079
 20
-0.031496
 30
0.0
 11
-0.0620079
 21
0.023622
 31
0.0
  0
LINE
  5
E4D
  8
TOPSOLDER
 10
-0.0226378
 20
0.023622
 30
0.0
 11
-0.0561024
 21
0.023622
 31
0.0
  0
LINE
  5
E4E
  8
TOPSOLDER
 10
-0.0561024
 20
0.023622
 30
0.0
 11
-0.0561024
 21
-0.031496
 31
0.0
  0
LINE
  5
E4F
  8
TOPSOLDER
 10
-0.0561024
 20
-0.031496
 30
0.0
 11
-0.0226378
 21
-0.031496
 31
0.0
  0
LINE
  5
E50
  8
TOPSOLDER
 10
-0.0226378
 20
-0.031496
 30
0.0
 11
-0.0226378
 21
0.023622
 31
0.0
  0
LINE
  5
E51
  8
TOPSOLDER
 10
0.0167323
 20
0.023622
 30
0.0
 11
-0.0167323
 21
0.023622
 31
0.0
  0
LINE
  5
E52
  8
TOPSOLDER
 10
-0.0167323
 20
0.023622
 30
0.0
 11
-0.0167323
 21
-0.031496
 31
0.0
  0
LINE
  5
E53
  8
TOPSOLDER
 10
-0.0167323
 20
-0.031496
 30
0.0
 11
0.0167323
 21
-0.031496
 31
0.0
  0
LINE
  5
E54
  8
TOPSOLDER
 10
0.0167323
 20
-0.031496
 30
0.0
 11
0.0167323
 21
0.023622
 31
0.0
  0
ENDBLK
  5
E40
  8
0
  0
BLOCK
  8
0
  2
R0603_339
 70
     0
 10
0.0
 20
0.0
 30
0.0
  3
R0603_339
  1

  0
LINE
  5
E59
  8
TOPSOLDER
 10
-0.0122835
 20
-0.019685
 30
0.0
 11
-0.0122835
 21
0.019685
 31
0.0
  0
LINE
  5
E5A
  8
TOPSOLDER
 10
-0.0122835
 20
0.019685
 30
0.0
 11
-0.0477165
 21
0.019685
 31
0.0
  0
LINE
  5
E5B
  8
TOPSOLDER
 10
-0.0477165
 20
0.019685
 30
0.0
 11
-0.0477165
 21
-0.019685
 31
0.0
  0
LINE
  5
E5C
  8
TOPSOLDER
 10
-0.0477165
 20
-0.019685
 30
0.0
 11
-0.0122835
 21
-0.019685
 31
0.0
  0
LINE
  5
E5D
  8
TOPSOLDER
 10
0.0477165
 20
-0.019685
 30
0.0
 11
0.0477165
 21
0.019685
 31
0.0
  0
LINE
  5
E5E
  8
TOPSOLDER
 10
0.0477165
 20
0.019685
 30
0.0
 11
0.0122835
 21
0.019685
 31
0.0
  0
LINE
  5
E5F
  8
TOPSOLDER
 10
0.0122835
 20
0.019685
 30
0.0
 11
0.0122835
 21
-0.019685
 31
0.0
  0
LINE
  5
E60
  8
TOPSOLDER
 10
0.0122835
 20
-0.019685
 30
0.0
 11
0.0477165
 21
-0.019685
 31
0.0
  0
ENDBLK
  5
E58
  8
0
  0
BLOCK
  8
0
  2
R0603_340
 70
     0
 10
0.0
 20
0.0
 30
0.0
  3
R0603_340
  1

  0
LINE
  5
E65
  8
TOPSOLDER
 10
0.0122835
 20
0.019685
 30
0.0
 11
0.0122835
 21
-0.019685
 31
0.0
  0
LINE
  5
E66
  8
TOPSOLDER
 10
0.0122835
 20
-0.019685
 30
0.0
 11
0.0477165
 21
-0.019685
 31
0.0
  0
LINE
  5
E67
  8
TOPSOLDER
 10
0.0477165
 20
-0.019685
 30
0.0
 11
0.0477165
 21
0.019685
 31
0.0
  0
LINE
  5
E68
  8
TOPSOLDER
 10
0.0477165
 20
0.019685
 30
0.0
 11
0.0122835
 21
0.019685
 31
0.0
  0
LINE
  5
E69
  8
TOPSOLDER
 10
-0.0477165
 20
0.019685
 30
0.0
 11
-0.0477165
 21
-0.019685
 31
0.0
  0
LINE
  5
E6A
  8
TOPSOLDER
 10
-0.0477165
 20
-0.019685
 30
0.0
 11
-0.0122835
 21
-0.019685
 31
0.0
  0
LINE
  5
E6B
  8
TOPSOLDER
 10
-0.0122835
 20
-0.019685
 30
0.0
 11
-0.0122835
 21
0.019685
 31
0.0
  0
LINE
  5
E6C
  8
TOPSOLDER
 10
-0.0122835
 20
0.019685
 30
0.0
 11
-0.0477165
 21
0.019685
 31
0.0
  0
ENDBLK
  5
E64
  8
0
  0
BLOCK
  8
0
  2
R0603_341
 70
     0
 10
0.0
 20
0.0
 30
0.0
  3
R0603_341
  1

  0
LINE
  5
E71
  8
TOPSOLDER
 10
-0.0122835
 20
-0.019685
 30
0.0
 11
-0.0122835
 21
0.019685
 31
0.0
  0
LINE
  5
E72
  8
TOPSOLDER
 10
-0.0122835
 20
0.019685
 30
0.0
 11
-0.0477165
 21
0.019685
 31
0.0
  0
LINE
  5
E73
  8
TOPSOLDER
 10
-0.0477165
 20
0.019685
 30
0.0
 11
-0.0477165
 21
-0.019685
 31
0.0
  0
LINE
  5
E74
  8
TOPSOLDER
 10
-0.0477165
 20
-0.019685
 30
0.0
 11
-0.0122835
 21
-0.019685
 31
0.0
  0
LINE
  5
E75
  8
TOPSOLDER
 10
0.0477165
 20
-0.019685
 30
0.0
 11
0.0477165
 21
0.019685
 31
0.0
  0
LINE
  5
E76
  8
TOPSOLDER
 10
0.0477165
 20
0.019685
 30
0.0
 11
0.0122835
 21
0.019685
 31
0.0
  0
LINE
  5
E77
  8
TOPSOLDER
 10
0.0122835
 20
0.019685
 30
0.0
 11
0.0122835
 21
-0.019685
 31
0.0
  0
LINE
  5
E78
  8
TOPSOLDER
 10
0.0122835
 20
-0.019685
 30
0.0
 11
0.0477165
 21
-0.019685
 31
0.0
  0
ENDBLK
  5
E70
  8
0
  0
BLOCK
  8
0
  2
R0603_342
 70
     0
 10
0.0
 20
0.0
 30
0.0
  3
R0603_342
  1

  0
LINE
  5
E7D
  8
TOPSOLDER
 10
0.0122835
 20
0.019685
 30
0.0
 11
0.0122835
 21
-0.019685
 31
0.0
  0
LINE
  5
E7E
  8
TOPSOLDER
 10
0.0122835
 20
-0.019685
 30
0.0
 11
0.0477165
 21
-0.019685
 31
0.0
  0
LINE
  5
E7F
  8
TOPSOLDER
 10
0.0477165
 20
-0.019685
 30
0.0
 11
0.0477165
 21
0.019685
 31
0.0
  0
LINE
  5
E80
  8
TOPSOLDER
 10
0.0477165
 20
0.019685
 30
0.0
 11
0.0122835
 21
0.019685
 31
0.0
  0
LINE
  5
E81
  8
TOPSOLDER
 10
-0.0477165
 20
0.019685
 30
0.0
 11
-0.0477165
 21
-0.019685
 31
0.0
  0
LINE
  5
E82
  8
TOPSOLDER
 10
-0.0477165
 20
-0.019685
 30
0.0
 11
-0.0122835
 21
-0.019685
 31
0.0
  0
LINE
  5
E83
  8
TOPSOLDER
 10
-0.0122835
 20
-0.019685
 30
0.0
 11
-0.0122835
 21
0.019685
 31
0.0
  0
LINE
  5
E84
  8
TOPSOLDER
 10
-0.0122835
 20
0.019685
 30
0.0
 11
-0.0477165
 21
0.019685
 31
0.0
  0
ENDBLK
  5
E7C
  8
0
  0
BLOCK
  8
0
  2
C0603_343
 70
     0
 10
0.0
 20
0.0
 30
0.0
  3
C0603_343
  1

  0
LINE
  5
E89
  8
TOPSOLDER
 10
-0.0122835
 20
-0.019685
 30
0.0
 11
-0.0122835
 21
0.019685
 31
0.0
  0
LINE
  5
E8A
  8
TOPSOLDER
 10
-0.0122835
 20
0.019685
 30
0.0
 11
-0.0477165
 21
0.019685
 31
0.0
  0
LINE
  5
E8B
  8
TOPSOLDER
 10
-0.0477165
 20
0.019685
 30
0.0
 11
-0.0477165
 21
-0.019685
 31
0.0
  0
LINE
  5
E8C
  8
TOPSOLDER
 10
-0.0477165
 20
-0.019685
 30
0.0
 11
-0.0122835
 21
-0.019685
 31
0.0
  0
LINE
  5
E8D
  8
TOPSOLDER
 10
0.0477165
 20
-0.019685
 30
0.0
 11
0.0477165
 21
0.019685
 31
0.0
  0
LINE
  5
E8E
  8
TOPSOLDER
 10
0.0477165
 20
0.019685
 30
0.0
 11
0.0122835
 21
0.019685
 31
0.0
  0
LINE
  5
E8F
  8
TOPSOLDER
 10
0.0122835
 20
0.019685
 30
0.0
 11
0.0122835
 21
-0.019685
 31
0.0
  0
LINE
  5
E90
  8
TOPSOLDER
 10
0.0122835
 20
-0.019685
 30
0.0
 11
0.0477165
 21
-0.019685
 31
0.0
  0
ENDBLK
  5
E88
  8
0
  0
BLOCK
  8
0
  2
C0603_B_344
 70
     0
 10
0.0
 20
0.0
 30
0.0
  3
C0603_B_344
  1

  0
ENDBLK
  5
E94
  8
0
  0
BLOCK
  8
0
  2
TAJB_B_345
 70
     0
 10
0.0
 20
0.0
 30
0.0
  3
TAJB_B_345
  1

  0
ENDBLK
  5
E98
  8
0
  0
BLOCK
  8
0
  2
C0603_B_346
 70
     0
 10
0.0
 20
0.0
 30
0.0
  3
C0603_B_346
  1

  0
ENDBLK
  5
E9C
  8
0
  0
BLOCK
  8
0
  2
FIELD_347
 70
     0
 10
0.0
 20
0.0
 30
0.0
  3
FIELD_347
  1

  0
CIRCLE
  5
EA1
  8
TOPSOLDER
 10
0.0
 20
0.0
 30
0.0
 40
0.02165355
  0
ENDBLK
  5
EA0
  8
0
  0
BLOCK
  8
0
  2
FIELD_B_348
 70
     0
 10
0.0
 20
0.0
 30
0.0
  3
FIELD_B_348
  1

  0
ENDBLK
  5
EA5
  8
0
  0
BLOCK
  8
0
  2
FIELD_349
 70
     0
 10
0.0
 20
0.0
 30
0.0
  3
FIELD_349
  1

  0
CIRCLE
  5
EAA
  8
TOPSOLDER
 10
0.0
 20
0.0
 30
0.0
 40
0.02165355
  0
ENDBLK
  5
EA9
  8
0
  0
BLOCK
  8
0
  2
FIELD_B_350
 70
     0
 10
0.0
 20
0.0
 30
0.0
  3
FIELD_B_350
  1

  0
ENDBLK
  5
EAE
  8
0
  0
ENDSEC
  0
SECTION
  2
ENTITIES
  0
CIRCLE
  5
6B
  8
TOPSOLDER
 10
13.1625274
 20
11.4270764
 30
0.0
 40
0.0319685
  0
INSERT
  5
6F
  8
0
  2
C0603_B_1
 10
13.0448456
 20
10.6221552
 30
0.0
 50
90.0
  0
INSERT
  5
73
  8
0
  2
C0603_B_2
 10
12.9269878
 20
10.5475193
 30
0.0
  0
INSERT
  5
7F
  8
0
  2
R0805_3
 10
11.9338661
 20
10.0479291
 30
0.0
 50
180.0
  0
INSERT
  5
83
  8
0
  2
TAJB_B_4
 10
12.105224
 20
10.2026142
 30
0.0
 50
90.0
  0
INSERT
  5
87
  8
0
  2
TAJB_B_5
 10
12.0622424
 20
10.0729291
 30
0.0
 50
90.0
  0
INSERT
  5
8B
  8
0
  2
LLP48_B_6
 10
12.4573077
 20
11.8600298
 30
0.0
 50
270.0
  0
INSERT
  5
143
  8
0
  2
QFN_44_0_5_7
 10
12.0042077
 20
10.6075306
 30
0.0
 50
335.0
  0
INSERT
  5
147
  8
0
  2
LFCSP_8_ADM4852_B_8
 10
12.9246883
 20
12.4655226
 30
0.0
 50
360.0
  0
INSERT
  5
173
  8
0
  2
LFCSP_8_ADM4852_9
 10
13.0317001
 20
12.4611024
 30
0.0
 50
360.0
  0
INSERT
  5
178
  8
0
  2
DS2_10
 10
13.4641417
 20
12.4844252
 30
0.0
  0
INSERT
  5
188
  8
0
  2
SOT23_11
 10
11.2211712
 20
12.3096664
 30
0.0
 50
360.0
  0
INSERT
  5
1A4
  8
0
  2
SSOT_6_12
 10
11.4108514
 20
12.5077194
 30
0.0
 50
90.0
  0
INSERT
  5
1B0
  8
0
  2
R0603_13
 10
11.2546972
 20
12.4129291
 30
0.0
 50
180.0
  0
INSERT
  5
1BC
  8
0
  2
R0603_14
 10
11.3538661
 20
12.4464331
 30
0.0
 50
90.0
  0
INSERT
  5
1C8
  8
0
  2
R0603_15
 10
11.3788661
 20
12.3129291
 30
0.0
 50
270.0
  0
INSERT
  5
1CD
  8
0
  2
DS2_16
 10
13.4641417
 20
9.6104094
 30
0.0
  0
INSERT
  5
1F9
  8
0
  2
LISTA2_5SMT2___17
 10
11.916937
 20
11.6595784
 30
0.0
 50
270.0
  0
INSERT
  5
219
  8
0
  2
USB______________18
 10
12.0451653
 20
11.1340516
 30
0.0
 50
180.0
  0
INSERT
  5
22A
  8
0
  2
LPV_10G_P__M__19
 10
11.6689889
 20
9.5941968
 30
0.0
 50
360.0
  0
INSERT
  5
288
  8
0
  2
DF14___20P_20
 10
12.2341921
 20
12.415143
 30
0.0
 50
360.0
  0
INSERT
  5
28E
  8
0
  2
HC49_21
 10
12.4792992
 20
10.4838092
 30
0.0
 50
90.0
  0
INSERT
  5
292
  8
0
  2
SSOT_6_B_22
 10
12.3541387
 20
9.9202913
 30
0.0
 50
360.0
  0
INSERT
  5
296
  8
0
  2
SOT23_B_23
 10
12.2956034
 20
9.9904501
 30
0.0
 50
270.0
  0
INSERT
  5
2A6
  8
0
  2
SOT23_24
 10
12.6535511
 20
10.2341815
 30
0.0
 50
180.0
  0
INSERT
  5
2B6
  8
0
  2
SOT23_25
 10
11.9593451
 20
10.3014375
 30
0.0
 50
180.0
  0
INSERT
  5
2D2
  8
0
  2
SSOT_6_26
 10
12.779063
 20
10.2036378
 30
0.0
 50
360.0
  0
INSERT
  5
2DE
  8
0
  2
R0603_27
 10
12.8538661
 20
10.0529291
 30
0.0
 50
360.0
  0
INSERT
  5
2EA
  8
0
  2
R0603_28
 10
12.6651856
 20
10.1129291
 30
0.0
 50
360.0
  0
INSERT
  5
2F6
  8
0
  2
R0603_29
 10
12.7066884
 20
9.9606589
 30
0.0
 50
90.0
  0
INSERT
  5
302
  8
0
  2
R0603_30
 10
12.8843244
 20
9.9588891
 30
0.0
 50
90.0
  0
INSERT
  5
30E
  8
0
  2
R0603_31
 10
12.8230646
 20
9.9588891
 30
0.0
 50
90.0
  0
INSERT
  5
31A
  8
0
  2
R0603_32
 10
12.7630882
 20
9.9588891
 30
0.0
 50
90.0
  0
INSERT
  5
31E
  8
0
  2
R0603_B_33
 10
12.4238661
 20
9.9729291
 30
0.0
 50
360.0
  0
INSERT
  5
322
  8
0
  2
R0603_B_34
 10
11.330288
 20
12.0518204
 30
0.0
 50
90.0
  0
INSERT
  5
326
  8
0
  2
R0603_B_35
 10
10.8521732
 20
11.7517621
 30
0.0
 50
90.0
  0
INSERT
  5
32A
  8
0
  2
R0603_B_36
 10
10.9124204
 20
11.7517621
 30
0.0
 50
90.0
  0
INSERT
  5
32E
  8
0
  2
R0603_B_37
 10
12.7851307
 20
12.4731433
 30
0.0
 50
270.0
  0
INSERT
  5
33A
  8
0
  2
R0603_38
 10
11.085504
 20
9.9562913
 30
0.0
 50
360.0
  0
INSERT
  5
346
  8
0
  2
R0603_39
 10
10.8658122
 20
9.8743622
 30
0.0
 50
360.0
  0
INSERT
  5
352
  8
0
  2
R0603_40
 10
10.8658122
 20
9.935063
 30
0.0
 50
360.0
  0
INSERT
  5
35E
  8
0
  2
R0603_41
 10
11.0388661
 20
9.5602659
 30
0.0
 50
360.0
  0
INSERT
  5
36A
  8
0
  2
R0603_42
 10
11.4035333
 20
9.5479291
 30
0.0
 50
90.0
  0
INSERT
  5
376
  8
0
  2
R0603_43
 10
11.4638661
 20
9.5479291
 30
0.0
 50
270.0
  0
INSERT
  5
37A
  8
0
  2
R0603_B_44
 10
12.4420726
 20
12.4158268
 30
0.0
 50
180.0
  0
INSERT
  5
37E
  8
0
  2
R0603_B_45
 10
12.3214809
 20
12.4162785
 30
0.0
 50
180.0
  0
INSERT
  5
382
  8
0
  2
R0603_B_46
 10
12.2591566
 20
11.1029291
 30
0.0
 50
90.0
  0
INSERT
  5
38E
  8
0
  2
R0603_47
 10
12.2679747
 20
10.9676126
 30
0.0
 50
360.0
  0
INSERT
  5
39A
  8
0
  2
R0603_48
 10
12.270269
 20
10.9067114
 30
0.0
 50
360.0
  0
INSERT
  5
3A6
  8
0
  2
R0603_49
 10
12.120792
 20
10.8687888
 30
0.0
 50
90.0
  0
INSERT
  5
3B2
  8
0
  2
R0603_50
 10
12.180421
 20
10.8687888
 30
0.0
 50
90.0
  0
INSERT
  5
3BE
  8
0
  2
R0402_51
 10
12.2345366
 20
12.227209
 30
0.0
 50
180.0
  0
INSERT
  5
3CA
  8
0
  2
R0603_52
 10
11.314768
 20
11.8501943
 30
0.0
 50
270.0
  0
INSERT
  5
3D6
  8
0
  2
R0603_53
 10
12.1938661
 20
11.7229291
 30
0.0
 50
360.0
  0
INSERT
  5
3E2
  8
0
  2
R0603_54
 10
11.7477773
 20
10.3129291
 30
0.0
 50
90.0
  0
INSERT
  5
3EE
  8
0
  2
R0603_55
 10
11.8038661
 20
10.3129291
 30
0.0
 50
90.0
  0
INSERT
  5
3FA
  8
0
  2
R0603_56
 10
12.7197132
 20
10.2341815
 30
0.0
 50
90.0
  0
INSERT
  5
406
  8
0
  2
R0603_57
 10
12.8447541
 20
10.1461106
 30
0.0
 50
360.0
  0
INSERT
  5
40A
  8
0
  2
R0603_B_58
 10
12.6601372
 20
10.7600157
 30
0.0
 50
360.0
  0
INSERT
  5
40E
  8
0
  2
R0603_B_59
 10
12.6601372
 20
10.6629291
 30
0.0
 50
360.0
  0
INSERT
  5
412
  8
0
  2
R0603_B_60
 10
12.6920017
 20
10.5479291
 30
0.0
 50
270.0
  0
INSERT
  5
416
  8
0
  2
R0603_B_61
 10
12.4792992
 20
10.581
 30
0.0
 50
90.0
  0
INSERT
  5
422
  8
0
  2
R0603_62
 10
12.6192992
 20
10.431
 30
0.0
 50
90.0
  0
INSERT
  5
426
  8
0
  2
R0603_B_63
 10
12.7457277
 20
10.4279291
 30
0.0
 50
360.0
  0
INSERT
  5
432
  8
0
  2
R0603_64
 10
12.7442992
 20
10.4133368
 30
0.0
 50
270.0
  0
INSERT
  5
43E
  8
0
  2
R0603_65
 10
12.6351233
 20
10.7289922
 30
0.0
 50
270.0
  0
INSERT
  5
44A
  8
0
  2
R0603_66
 10
12.7937459
 20
10.9343071
 30
0.0
 50
270.0
  0
INSERT
  5
456
  8
0
  2
R0603_67
 10
12.6364156
 20
10.6187932
 30
0.0
 50
90.0
  0
INSERT
  5
462
  8
0
  2
R0603_68
 10
12.8013073
 20
10.4283368
 30
0.0
 50
90.0
  0
INSERT
  5
466
  8
0
  2
R0603_B_69
 10
11.4538661
 20
9.7455554
 30
0.0
 50
360.0
  0
INSERT
  5
46A
  8
0
  2
R0603_B_70
 10
11.2156847
 20
9.8791654
 30
0.0
 50
360.0
  0
INSERT
  5
46E
  8
0
  2
R0603_B_71
 10
11.2238661
 20
9.5456299
 30
0.0
 50
90.0
  0
INSERT
  5
472
  8
0
  2
R0603_B_72
 10
11.2238661
 20
9.6679291
 30
0.0
 50
270.0
  0
INSERT
  5
47E
  8
0
  2
R0603_73
 10
12.9369359
 20
12.4675936
 30
0.0
 50
180.0
  0
INSERT
  5
48A
  8
0
  2
R0603_74
 10
12.9386915
 20
12.3775936
 30
0.0
 50
180.0
  0
INSERT
  5
48F
  8
0
  2
X1_75
 10
11.8588661
 20
10.9982283
 30
0.0
 50
360.0
  0
INSERT
  5
494
  8
0
  2
X1_76
 10
11.9354898
 20
10.9922992
 30
0.0
 50
360.0
  0
INSERT
  5
499
  8
0
  2
X1_77
 10
11.9023801
 20
10.8533987
 30
0.0
 50
360.0
  0
INSERT
  5
49E
  8
0
  2
X1_78
 10
12.0549291
 20
10.9679291
 30
0.0
 50
360.0
  0
INSERT
  5
4A3
  8
0
  2
X1_79
 10
12.0538661
 20
10.8833987
 30
0.0
 50
360.0
  0
INSERT
  5
4B7
  8
0
  2
DLW21S_80
 10
12.1481595
 20
10.9846943
 30
0.0
 50
90.0
  0
INSERT
  5
4C3
  8
0
  2
SDR0604_1_81
 10
12.3961167
 20
9.9906589
 30
0.0
 50
360.0
  0
INSERT
  5
4CD
  8
0
  2
PSH02_3W_UHLOVY___________
 10
10.8688661
 20
11.5579291
 30
0.0
 50
90.0
  0
INSERT
  5
4D9
  8
0
  2
PSH02_5W_UHLOVY_83
 10
13.3231293
 20
9.8541815
 30
0.0
 50
270.0
  0
INSERT
  5
4F1
  8
0
  2
SOT23_5_84
 10
12.5551259
 20
9.935063
 30
0.0
 50
360.0
  0
INSERT
  5
535
  8
0
  2
TSSOP16_85
 10
11.1800472
 20
9.6545826
 30
0.0
 50
180.0
  0
INSERT
  5
54D
  8
0
  2
SOT23_5_86
 10
12.1565077
 20
11.7885752
 30
0.0
 50
360.0
  0
INSERT
  5
551
  8
0
  2
MSOP_10_B_87
 10
11.4841968
 20
9.6833306
 30
0.0
 50
180.0
  0
INSERT
  5
55D
  8
0
  2
R0805_88
 10
11.7438268
 20
10.4418623
 30
0.0
 50
360.0
  0
INSERT
  5
569
  8
0
  2
R0805_89
 10
13.1888661
 20
10.1929291
 30
0.0
 50
270.0
  0
INSERT
  5
575
  8
0
  2
R0805_90
 10
12.6822037
 20
10.9184801
 30
0.0
 50
180.0
  0
INSERT
  5
581
  8
0
  2
R0805_91
 10
12.9664927
 20
10.2794457
 30
0.0
 50
180.0
  0
INSERT
  5
58D
  8
0
  2
R0805_92
 10
12.1588661
 20
10.2429291
 30
0.0
 50
360.0
  0
INSERT
  5
599
  8
0
  2
DO214AC_93
 10
12.6147336
 20
9.8179291
 30
0.0
 50
180.0
  0
INSERT
  5
59F
  8
0
  2
CES2_5_7_LEZI__6_8_15__94
 10
13.0757547
 20
10.0732538
 30
0.0
 50
360.0
  0
INSERT
  5
5AB
  8
0
  2
C0603_95
 10
12.8222874
 20
9.8389976
 30
0.0
 50
270.0
  0
INSERT
  5
5B7
  8
0
  2
C0603_96
 10
12.8822874
 20
9.8389976
 30
0.0
 50
90.0
  0
INSERT
  5
5C3
  8
0
  2
C0603_97
 10
12.9443244
 20
9.9588891
 30
0.0
 50
270.0
  0
INSERT
  5
5CF
  8
0
  2
C0603_98
 10
12.2425188
 20
10.0547302
 30
0.0
 50
90.0
  0
INSERT
  5
5DB
  8
0
  2
C0603_99
 10
12.1825188
 20
10.0547302
 30
0.0
 50
90.0
  0
INSERT
  5
5E7
  8
0
  2
TAJA_100
 10
12.1088661
 20
10.0079291
 30
0.0
 50
360.0
  0
INSERT
  5
5F3
  8
0
  2
C0603_101
 10
11.2288661
 20
9.7979291
 30
0.0
 50
270.0
  0
INSERT
  5
5F7
  8
0
  2
C0603_B_102
 10
11.0297408
 20
9.7810353
 30
0.0
 50
270.0
  0
INSERT
  5
5FB
  8
0
  2
TAJA_B_103
 10
10.8888661
 20
9.8681999
 30
0.0
 50
180.0
  0
INSERT
  5
5FF
  8
0
  2
C0603_B_104
 10
10.9697751
 20
9.7810353
 30
0.0
 50
270.0
  0
INSERT
  5
603
  8
0
  2
TAJA_B_105
 10
11.1525354
 20
9.5929291
 30
0.0
 50
180.0
  0
INSERT
  5
60F
  8
0
  2
TAJB_106
 10
11.2588661
 20
9.5829291
 30
0.0
 50
360.0
  0
INSERT
  5
61B
  8
0
  2
C0603_107
 10
11.3488661
 20
9.5479291
 30
0.0
 50
90.0
  0
INSERT
  5
627
  8
0
  2
C0603_108
 10
11.5691871
 20
12.4029291
 30
0.0
 50
270.0
  0
INSERT
  5
633
  8
0
  2
C0603_109
 10
11.1948813
 20
11.8517092
 30
0.0
 50
90.0
  0
INSERT
  5
63F
  8
0
  2
C0603_110
 10
11.2540672
 20
11.8501943
 30
0.0
 50
90.0
  0
INSERT
  5
64B
  8
0
  2
TAJB_111
 10
12.0827355
 20
12.0883185
 30
0.0
 50
270.0
  0
INSERT
  5
657
  8
0
  2
C0603_112
 10
12.2288661
 20
11.9733687
 30
0.0
 50
360.0
  0
INSERT
  5
663
  8
0
  2
C0603_113
 10
12.0344993
 20
11.9964706
 30
0.0
 50
360.0
  0
INSERT
  5
66F
  8
0
  2
C0603_114
 10
12.1942992
 20
11.6629291
 30
0.0
 50
180.0
  0
INSERT
  5
67B
  8
0
  2
TAJB_115
 10
12.2642992
 20
11.5729291
 30
0.0
 50
270.0
  0
INSERT
  5
687
  8
0
  2
C0603_116
 10
13.0047384
 20
10.1529291
 30
0.0
 50
90.0
  0
INSERT
  5
693
  8
0
  2
C0603_117
 10
13.1244147
 20
10.4430846
 30
0.0
 50
360.0
  0
INSERT
  5
69F
  8
0
  2
TAJA_118
 10
13.0888661
 20
10.2279291
 30
0.0
 50
180.0
  0
INSERT
  5
6AB
  8
0
  2
TAJA_119
 10
12.6942992
 20
10.831
 30
0.0
 50
90.0
  0
INSERT
  5
6B7
  8
0
  2
TAJA_120
 10
13.1460724
 20
10.3738092
 30
0.0
 50
270.0
  0
INSERT
  5
6C3
  8
0
  2
C0603_121
 10
13.0514457
 20
10.9045186
 30
0.0
 50
90.0
  0
INSERT
  5
6C7
  8
0
  2
C0603_B_122
 10
13.0581072
 20
10.7418711
 30
0.0
 50
90.0
  0
INSERT
  5
6D3
  8
0
  2
C0603_123
 10
12.7192992
 20
10.6025354
 30
0.0
 50
360.0
  0
INSERT
  5
6DF
  8
0
  2
TAJA_124
 10
12.6842992
 20
10.531
 30
0.0
 50
90.0
  0
INSERT
  5
6EB
  8
0
  2
C0603_125
 10
12.7242992
 20
10.6989922
 30
0.0
 50
360.0
  0
INSERT
  5
6F7
  8
0
  2
C0603_126
 10
12.7242992
 20
10.7580473
 30
0.0
 50
360.0
  0
INSERT
  5
6FB
  8
0
  2
C0603_B_127
 10
12.8447554
 20
10.7400878
 30
0.0
 50
270.0
  0
INSERT
  5
707
  8
0
  2
C0603_128
 10
12.8929916
 20
10.4251252
 30
0.0
 50
180.0
  0
INSERT
  5
70B
  8
0
  2
C0603_B_129
 10
12.9693244
 20
10.7687064
 30
0.0
 50
180.0
  0
INSERT
  5
70F
  8
0
  2
C0603_B_130
 10
12.5342992
 20
10.5814609
 30
0.0
 50
270.0
  0
INSERT
  5
713
  8
0
  2
C0603_B_131
 10
12.4192992
 20
10.581
 30
0.0
 50
90.0
  0
INSERT
  5
717
  8
0
  2
C0603_B_132
 10
13.4090595
 20
10.053874
 30
0.0
 50
360.0
  0
INSERT
  5
71B
  8
0
  2
C0603_B_133
 10
13.4125274
 20
9.9562913
 30
0.0
 50
180.0
  0
INSERT
  5
727
  8
0
  2
C0603_134
 10
11.9438661
 20
9.8079291
 30
0.0
 50
360.0
  0
INSERT
  5
72B
  8
0
  2
C0603_B_135
 10
11.3372997
 20
9.7455554
 30
0.0
 50
180.0
  0
INSERT
  5
72F
  8
0
  2
C0603_B_136
 10
11.5651649
 20
9.5929291
 30
0.0
 50
180.0
  0
INSERT
  5
733
  8
0
  2
TAJA_B_137
 10
11.5788661
 20
9.7358897
 30
0.0
 50
360.0
  0
INSERT
  5
737
  8
0
  2
TAJA_B_138
 10
11.3938661
 20
9.5329291
 30
0.0
 50
90.0
  0
INSERT
  5
73B
  8
0
  2
C0603_B_139
 10
11.3372997
 20
9.8056862
 30
0.0
 50
180.0
  0
INSERT
  5
73F
  8
0
  2
TAJA_B_140
 10
11.3759685
 20
9.8779291
 30
0.0
 50
90.0
  0
INSERT
  5
743
  8
0
  2
C0603_B_141
 10
13.1056052
 20
11.807209
 30
0.0
 50
270.0
  0
INSERT
  5
747
  8
0
  2
C0603_B_142
 10
13.2333935
 20
12.021
 30
0.0
 50
90.0
  0
INSERT
  5
753
  8
0
  2
C0603_143
 10
12.4838661
 20
10.2879291
 30
0.0
 50
90.0
  0
INSERT
  5
75F
  8
0
  2
C0603_144
 10
12.4238661
 20
10.2879291
 30
0.0
 50
90.0
  0
INSERT
  5
76B
  8
0
  2
TAJA_145
 10
12.3423277
 20
10.2572012
 30
0.0
  0
INSERT
  5
76F
  8
0
  2
R0603_B_146
 10
12.6288661
 20
10.4279291
 30
0.0
 50
360.0
  0
INSERT
  5
77B
  8
0
  2
C0603_147
 10
11.7538268
 20
10.5981615
 30
0.0
 50
360.0
  0
INSERT
  5
787
  8
0
  2
C0603_148
 10
11.9688661
 20
10.8729291
 30
0.0
 50
90.0
  0
INSERT
  5
8CB
  8
0
  2
HIROSE_FH16_80S_0_3_149
 10
13.4272913
 20
10.9293071
 30
0.0
 50
270.0
  0
INSERT
  5
8D1
  8
0
  2
HC49_150
 10
11.6242476
 20
10.7363199
 30
0.0
 50
90.0
  0
INSERT
  5
8D5
  8
0
  2
R0603_B_151
 10
11.6277142
 20
10.8356647
 30
0.0
 50
90.0
  0
INSERT
  5
8E1
  8
0
  2
D0805_152
 10
12.2830078
 20
10.7087765
 30
0.0
 50
180.0
  0
INSERT
  5
8ED
  8
0
  2
D0805_153
 10
12.2238268
 20
10.331
 30
0.0
 50
180.0
  0
INSERT
  5
8F1
  8
0
  2
C0603_B_154
 10
11.6894325
 20
10.7609404
 30
0.0
 50
90.0
  0
INSERT
  5
8F5
  8
0
  2
C0603_B_155
 10
11.6894325
 20
10.9042673
 30
0.0
 50
270.0
  0
INSERT
  5
901
  8
0
  2
C0603_156
 10
12.2638268
 20
10.630249
 30
0.0
 50
180.0
  0
INSERT
  5
90D
  8
0
  2
C0603_157
 10
12.0588268
 20
10.350249
 30
0.0
 50
270.0
  0
INSERT
  5
911
  8
0
  2
TAJA_B_158
 10
11.9794982
 20
10.3079291
 30
0.0
 50
270.0
  0
INSERT
  5
91D
  8
0
  2
R0603_159
 10
12.6888661
 20
10.4126498
 30
0.0
 50
90.0
  0
INSERT
  5
929
  8
0
  2
R0603_160
 10
12.205112
 20
10.485249
 30
0.0
 50
90.0
  0
INSERT
  5
935
  8
0
  2
R0603_161
 10
11.7981969
 20
10.7448909
 30
0.0
 50
90.0
  0
INSERT
  5
941
  8
0
  2
TAJA_162
 10
11.7338268
 20
10.5275316
 30
0.0
 50
90.0
  0
INSERT
  5
9C5
  8
0
  2
VFBGA128_1_163
 10
13.0572127
 20
10.7797007
 30
0.0
 50
90.0
  0
INSERT
  5
9D5
  8
0
  2
SOT323_164
 10
13.2092992
 20
12.411
 30
0.0
 50
180.0
  0
INSERT
  5
9E1
  8
0
  2
TAJA_165
 10
12.6647366
 20
12.0031953
 30
0.0
 50
90.0
  0
INSERT
  5
9ED
  8
0
  2
R0402_166
 10
12.5792992
 20
12.231
 30
0.0
 50
180.0
  0
INSERT
  5
9F7
  8
0
  2
PSH02_3W_UHLOVY__________0
 10
10.8688661
 20
11.1243214
 30
0.0
 50
90.0
  0
INSERT
  5
A03
  8
0
  2
R0603_168
 10
11.8138661
 20
11.8929291
 30
0.0
 50
180.0
  0
INSERT
  5
A07
  8
0
  2
R1206_B_169
 10
13.3637992
 20
11.9131715
 30
0.0
 50
360.0
  0
INSERT
  5
A0B
  8
0
  2
R1206_B_170
 10
13.4702954
 20
12.011
 30
0.0
 50
180.0
  0
INSERT
  5
A0F
  8
0
  2
R0603_B_171
 10
11.946775
 20
11.9499278
 30
0.0
 50
180.0
  0
INSERT
  5
A13
  8
0
  2
R0603_B_172
 10
11.946775
 20
12.0088875
 30
0.0
 50
180.0
  0
INSERT
  5
A1F
  8
0
  2
R0805_173
 10
12.0660742
 20
12.206
 30
0.0
 50
360.0
  0
INSERT
  5
A2B
  8
0
  2
R0805_174
 10
12.8105015
 20
12.0879291
 30
0.0
 50
90.0
  0
INSERT
  5
A37
  8
0
  2
SDR0604_1_175
 10
11.0824799
 20
10.8252631
 30
0.0
 50
90.0
  0
INSERT
  5
A3B
  8
0
  2
C0603_B_176
 10
12.5092992
 20
11.1979291
 30
0.0
 50
90.0
  0
INSERT
  5
A3F
  8
0
  2
LQFP_64_B_177
 10
11.310288
 20
11.5961541
 30
0.0
 50
90.0
  0
INSERT
  5
A43
  8
0
  2
C0603_B_178
 10
12.4490451
 20
11.1979291
 30
0.0
 50
90.0
  0
INSERT
  5
A47
  8
0
  2
R0603_B_179
 10
10.9300936
 20
10.232146
 30
0.0
 50
180.0
  0
INSERT
  5
A53
  8
0
  2
R0603_180
 10
11.0410909
 20
11.5336457
 30
0.0
 50
180.0
  0
INSERT
  5
A5F
  8
0
  2
R0603_181
 10
11.2038661
 20
11.6329291
 30
0.0
 50
270.0
  0
INSERT
  5
A63
  8
0
  2
R0603_B_182
 10
11.2540921
 20
10.1929291
 30
0.0
 50
180.0
  0
INSERT
  5
A6F
  8
0
  2
R0603_183
 10
13.2050539
 20
12.556
 30
0.0
 50
360.0
  0
INSERT
  5
A7B
  8
0
  2
R0603_184
 10
13.2092992
 20
12.496
 30
0.0
 50
360.0
  0
INSERT
  5
A87
  8
0
  2
R0603_185
 10
13.2892992
 20
12.4066217
 30
0.0
 50
270.0
  0
INSERT
  5
A8B
  8
0
  2
M_FLAT_B_186
 10
11.1488981
 20
10.591031
 30
0.0
 50
90.0
  0
INSERT
  5
A8F
  8
0
  2
C0603_B_187
 10
10.9291341
 20
10.1731445
 30
0.0
 50
360.0
  0
INSERT
  5
A9B
  8
0
  2
C0603_188
 10
11.1120181
 20
11.5926819
 30
0.0
 50
360.0
  0
INSERT
  5
AA7
  8
0
  2
C0603_189
 10
11.5168422
 20
10.15502
 30
0.0
 50
270.0
  0
INSERT
  5
AB3
  8
0
  2
TAJA_190
 10
11.4448422
 20
10.1898159
 30
0.0
 50
180.0
  0
INSERT
  5
ABF
  8
0
  2
TAJB_191
 10
11.3004921
 20
10.2794457
 30
0.0
 50
270.0
  0
INSERT
  5
ACB
  8
0
  2
C0603_192
 10
11.3038661
 20
10.3760214
 30
0.0
 50
360.0
  0
INSERT
  5
ACF
  8
0
  2
C0603_B_193
 10
11.5521844
 20
10.342881
 30
0.0
 50
90.0
  0
INSERT
  5
AD3
  8
0
  2
C0603_B_194
 10
11.360288
 20
10.5129291
 30
0.0
 50
180.0
  0
INSERT
  5
AD7
  8
0
  2
TAJA_B_195
 10
11.3938661
 20
10.5879291
 30
0.0
 50
270.0
  0
INSERT
  5
AE3
  8
0
  2
C0603_196
 10
13.0726494
 20
12.5225936
 30
0.0
 50
180.0
  0
INSERT
  5
AE8
  8
0
  2
DS2_197
 10
10.8263464
 20
9.6104094
 30
0.0
  0
INSERT
  5
AED
  8
0
  2
DS2_198
 10
10.8263464
 20
12.4844252
 30
0.0
  0
INSERT
  5
AF1
  8
0
  2
C0603_B_199
 10
11.2479967
 20
10.6678327
 30
0.0
 50
90.0
  0
INSERT
  5
AF5
  8
0
  2
C0603_B_200
 10
11.012882
 20
10.814645
 30
0.0
 50
180.0
  0
INSERT
  5
B01
  8
0
  2
C0603_201
 10
10.9038661
 20
10.4470815
 30
0.0
 50
360.0
  0
INSERT
  5
B05
  8
0
  2
TAJA_B_202
 10
11.020504
 20
10.8882264
 30
0.0
 50
270.0
  0
INSERT
  5
B11
  8
0
  2
TAJA_203
 10
10.9202281
 20
10.5184626
 30
0.0
 50
270.0
  0
INSERT
  5
B1D
  8
0
  2
C0603_204
 10
10.8889572
 20
10.7339499
 30
0.0
 50
360.0
  0
INSERT
  5
B29
  8
0
  2
TAJB_205
 10
10.90371
 20
10.6308329
 30
0.0
 50
270.0
  0
INSERT
  5
B2D
  8
0
  2
C0603_B_206
 10
13.2557359
 20
11.861
 30
0.0
 50
360.0
  0
INSERT
  5
B31
  8
0
  2
C0603_B_207
 10
13.2557359
 20
11.8001339
 30
0.0
 50
360.0
  0
INSERT
  5
B37
  8
0
  2
CES2_5_7_208
 10
12.3536376
 20
11.3276045
 30
0.0
 50
180.0
  0
INSERT
  5
B3B
  8
0
  2
C0603_B_209
 10
12.531775
 20
11.6272231
 30
0.0
 50
90.0
  0
INSERT
  5
B3F
  8
0
  2
C0603_B_210
 10
12.481775
 20
11.6270997
 30
0.0
 50
90.0
  0
INSERT
  5
B43
  8
0
  2
SOD80_B_211
 10
11.1588661
 20
10.4629291
 30
0.0
 50
180.0
  0
INSERT
  5
B47
  8
0
  2
DO214AA_B_212
 10
12.7985398
 20
11.2329291
 30
0.0
 50
360.0
  0
INSERT
  5
B4B
  8
0
  2
SOT23_6_B_213
 10
11.0559671
 20
10.595645
 30
0.0
 50
270.0
  0
INSERT
  5
B57
  8
0
  2
LSMD1_214
 10
12.7806773
 20
11.2979291
 30
0.0
 50
180.0
  0
INSERT
  5
B5B
  8
0
  2
R0603_B_215
 10
10.9854947
 20
10.754645
 30
0.0
 50
360.0
  0
INSERT
  5
B5F
  8
0
  2
R0603_B_216
 10
10.9046599
 20
10.4893916
 30
0.0
 50
90.0
  0
INSERT
  5
B63
  8
0
  2
R0603_B_217
 10
10.9676328
 20
10.4893916
 30
0.0
 50
90.0
  0
INSERT
  5
B79
  8
0
  2
RJ45_90__218
 10
13.3006052
 20
12.1350275
 30
0.0
 50
360.0
  0
INSERT
  5
B85
  8
0
  2
P_____KPE112__219
 10
11.0282746
 20
10.3404299
 30
0.0
 50
54.99999999999999
  0
INSERT
  5
B89
  8
0
  2
SOT23_B_220
 10
11.0609062
 20
10.2278852
 30
0.0
 50
90.0
  0
INSERT
  5
B8D
  8
0
  2
R0603_B_221
 10
11.1596618
 20
10.1679291
 30
0.0
 50
270.0
  0
INSERT
  5
B99
  8
0
  2
C0603_222
 10
11.2538661
 20
11.5029291
 30
0.0
 50
180.0
  0
INSERT
  5
BA5
  8
0
  2
C0603_223
 10
11.3038182
 20
11.5629291
 30
0.0
 50
180.0
  0
INSERT
  5
BA9
  8
0
  2
C0603_B_224
 10
11.1788163
 20
11.9695783
 30
0.0
  0
INSERT
  5
BAD
  8
0
  2
C0603_B_225
 10
11.6994267
 20
11.3878656
 30
0.0
 50
90.0
  0
INSERT
  5
BB1
  8
0
  2
C0603_B_226
 10
11.1032755
 20
11.2690678
 30
0.0
 50
90.0
  0
INSERT
  5
BB5
  8
0
  2
C0603_B_227
 10
11.8538661
 20
11.9829291
 30
0.0
 50
90.0
  0
INSERT
  5
BB9
  8
0
  2
C0603_B_228
 10
11.1788163
 20
11.9116557
 30
0.0
  0
INSERT
  5
BBD
  8
0
  2
C0603_B_229
 10
11.6389543
 20
11.3878656
 30
0.0
 50
90.0
  0
INSERT
  5
BC1
  8
0
  2
C0603_B_230
 10
11.0438661
 20
11.2720157
 30
0.0
 50
90.0
  0
INSERT
  5
BCD
  8
0
  2
C0603_231
 10
11.4988661
 20
11.481783
 30
0.0
 50
90.0
  0
INSERT
  5
BD1
  8
0
  2
C0603_B_232
 10
11.5188661
 20
11.168392
 30
0.0
 50
180.0
  0
INSERT
  5
BD5
  8
0
  2
C0603_B_233
 10
11.6437757
 20
11.168392
 30
0.0
 50
360.0
  0
INSERT
  5
BE1
  8
0
  2
C0603_234
 10
11.5438661
 20
11.7479291
 30
0.0
 50
90.0
  0
INSERT
  5
BED
  8
0
  2
C0603_235
 10
11.7279888
 20
11.7490317
 30
0.0
 50
90.0
  0
INSERT
  5
BF1
  8
0
  2
C0603_B_236
 10
11.5712864
 20
12.0822718
 30
0.0
 50
180.0
  0
INSERT
  5
BF5
  8
0
  2
C0603_B_237
 10
11.4421772
 20
12.0222718
 30
0.0
  0
INSERT
  5
BF9
  8
0
  2
C0603_B_238
 10
11.5712864
 20
12.0222718
 30
0.0
 50
180.0
  0
INSERT
  5
BFD
  8
0
  2
C0603_B_239
 10
11.4421772
 20
12.0822718
 30
0.0
  0
INSERT
  5
C01
  8
0
  2
TAJA_B_240
 10
12.0198915
 20
11.8657673
 30
0.0
 50
270.0
  0
INSERT
  5
C05
  8
0
  2
C0603_B_241
 10
12.2187985
 20
12.0955819
 30
0.0
 50
180.0
  0
INSERT
  5
C09
  8
0
  2
C0603_B_242
 10
12.2642992
 20
12.0386789
 30
0.0
 50
180.0
  0
INSERT
  5
C0D
  8
0
  2
C0603_B_243
 10
12.756775
 20
11.9574497
 30
0.0
 50
90.0
  0
INSERT
  5
C11
  8
0
  2
C0603_B_244
 10
12.697484
 20
11.9574497
 30
0.0
 50
90.0
  0
INSERT
  5
C15
  8
0
  2
C0603_B_245
 10
12.1502479
 20
11.8949278
 30
0.0
 50
270.0
  0
INSERT
  5
C19
  8
0
  2
C0603_B_246
 10
12.2102479
 20
11.8949278
 30
0.0
 50
270.0
  0
INSERT
  5
C1D
  8
0
  2
C0603_B_247
 10
12.7631074
 20
11.8083357
 30
0.0
 50
90.0
  0
INSERT
  5
C21
  8
0
  2
C0603_B_248
 10
12.7066702
 20
11.8083357
 30
0.0
 50
90.0
  0
INSERT
  5
C25
  8
0
  2
C0603_B_249
 10
12.734775
 20
11.6832061
 30
0.0
 50
90.0
  0
INSERT
  5
C29
  8
0
  2
C0603_B_250
 10
12.676775
 20
11.6832231
 30
0.0
 50
90.0
  0
INSERT
  5
C2D
  8
0
  2
C0603_B_251
 10
12.3214679
 20
11.6310162
 30
0.0
 50
90.0
  0
INSERT
  5
C31
  8
0
  2
C0603_B_252
 10
12.3795776
 20
11.6305437
 30
0.0
 50
90.0
  0
INSERT
  5
C35
  8
0
  2
TAJA_B_253
 10
12.1347152
 20
11.6911909
 30
0.0
 50
270.0
  0
INSERT
  5
C39
  8
0
  2
C0603_B_254
 10
12.1655026
 20
11.6227082
 30
0.0
 50
180.0
  0
INSERT
  5
C3D
  8
0
  2
M_FLAT_B_255
 10
11.4604631
 20
10.2624806
 30
0.0
 50
90.0
  0
INSERT
  5
C41
  8
0
  2
SOD80_B_256
 10
11.4098422
 20
10.1729291
 30
0.0
 50
360.0
  0
INSERT
  5
C4D
  8
0
  2
D0805_257
 10
10.8930327
 20
12.2420953
 30
0.0
 50
360.0
  0
INSERT
  5
C59
  8
0
  2
D0805_258
 10
10.8930327
 20
12.1348977
 30
0.0
 50
360.0
  0
INSERT
  5
C5D
  8
0
  2
R0805_B_259
 10
11.8588661
 20
12.1245599
 30
0.0
 50
270.0
  0
INSERT
  5
C61
  8
0
  2
R0805_B_260
 10
11.6448991
 20
11.9091583
 30
0.0
 50
90.0
  0
INSERT
  5
C65
  8
0
  2
R0805_B_261
 10
11.520288
 20
11.9490317
 30
0.0
  0
INSERT
  5
C69
  8
0
  2
SOT23_6_B_262
 10
11.365523
 20
10.2782024
 30
0.0
 50
270.0
  0
INSERT
  5
C75
  8
0
  2
SDR0604_1_263
 10
11.4201259
 20
10.5198583
 30
0.0
 50
90.0
  0
INSERT
  5
C79
  8
0
  2
L1210_B_264
 10
11.7100043
 20
12.0435317
 30
0.0
 50
270.0
  0
INSERT
  5
C7D
  8
0
  2
L1210_B_265
 10
11.4433346
 20
12.2032807
 30
0.0
  0
INSERT
  5
C81
  8
0
  2
R0603_B_266
 10
11.3388661
 20
10.4516958
 30
0.0
 50
360.0
  0
INSERT
  5
C85
  8
0
  2
R0603_B_267
 10
11.3138661
 20
10.1279291
 30
0.0
 50
360.0
  0
INSERT
  5
C91
  8
0
  2
R0603_268
 10
11.1420181
 20
11.6841463
 30
0.0
 50
270.0
  0
INSERT
  5
C9D
  8
0
  2
R0603_269
 10
11.2688661
 20
11.6479291
 30
0.0
 50
270.0
  0
INSERT
  5
CA1
  8
0
  2
R0603_B_270
 10
11.5279058
 20
11.3062928
 30
0.0
 50
360.0
  0
INSERT
  5
CAD
  8
0
  2
R0603_271
 10
11.0319697
 20
11.9174497
 30
0.0
 50
90.0
  0
INSERT
  5
CB9
  8
0
  2
R0603_272
 10
10.9719697
 20
11.9174497
 30
0.0
 50
90.0
  0
INSERT
  5
CC5
  8
0
  2
R0603_273
 10
11.6394267
 20
11.7190317
 30
0.0
 50
180.0
  0
INSERT
  5
CC9
  8
0
  2
R0603_B_274
 10
12.215484
 20
11.7655694
 30
0.0
 50
180.0
  0
INSERT
  5
CCD
  8
0
  2
R0603_B_275
 10
12.1228607
 20
12.0672061
 30
0.0
 50
90.0
  0
INSERT
  5
CD1
  8
0
  2
R0603_B_276
 10
12.066775
 20
12.0672231
 30
0.0
 50
90.0
  0
INSERT
  5
CDD
  8
0
  2
R0603_277
 10
12.7150742
 20
11.8817092
 30
0.0
 50
180.0
  0
INSERT
  5
CE1
  8
0
  2
CAY16_J4_B_278
 10
11.9613419
 20
11.5367027
 30
0.0
 50
270.0
  0
INSERT
  5
CE7
  8
0
  2
HC49_279
 10
11.677874
 20
11.2379291
 30
0.0
 50
360.0
  0
INSERT
  5
CF1
  8
0
  2
TC_38_280
 10
11.6095067
 20
11.7691935
 30
0.0
  0
INSERT
  5
CFD
  8
0
  2
D0805_281
 10
10.8930327
 20
12.028757
 30
0.0
 50
360.0
  0
INSERT
  5
D09
  8
0
  2
R0603_282
 10
10.911576
 20
11.9174497
 30
0.0
 50
90.0
  0
INSERT
  5
D15
  8
0
  2
R0402_283
 10
12.676775
 20
12.227209
 30
0.0
 50
180.0
  0
INSERT
  5
D21
  8
0
  2
R0402_284
 10
12.481775
 20
12.227209
 30
0.0
 50
180.0
  0
INSERT
  5
D2D
  8
0
  2
R0402_285
 10
12.3318196
 20
12.227209
 30
0.0
 50
180.0
  0
INSERT
  5
D31
  8
0
  2
C0603_B_286
 10
13.0030127
 20
12.3999793
 30
0.0
 50
360.0
  0
INSERT
  5
D35
  8
0
  2
C0603_B_287
 10
12.9730127
 20
12.1729291
 30
0.0
 50
90.0
  0
INSERT
  5
D39
  8
0
  2
C0603_B_288
 10
13.1438661
 20
12.0818204
 30
0.0
 50
180.0
  0
INSERT
  5
D3D
  8
0
  2
SOT323_B_289
 10
13.1292992
 20
12.4871762
 30
0.0
 50
270.0
  0
INSERT
  5
D41
  8
0
  2
R0603_B_290
 10
12.8440548
 20
12.5383415
 30
0.0
 50
270.0
  0
INSERT
  5
D45
  8
0
  2
R0603_B_291
 10
13.2635626
 20
12.2963635
 30
0.0
 50
360.0
  0
INSERT
  5
D49
  8
0
  2
R0603_B_292
 10
13.1288661
 20
12.3229291
 30
0.0
 50
360.0
  0
INSERT
  5
D4D
  8
0
  2
R0603_B_293
 10
13.0075277
 20
12.3179291
 30
0.0
 50
360.0
  0
INSERT
  5
D51
  8
0
  2
R1206_B_294
 10
13.1588661
 20
12.1413268
 30
0.0
 50
270.0
  0
INSERT
  5
D55
  8
0
  2
R1206_B_295
 10
13.0538661
 20
12.1413268
 30
0.0
 50
270.0
  0
INSERT
  5
D61
  8
0
  2
R0603_296
 10
12.2938267
 20
10.5152489
 30
0.0
 50
360.0
  0
INSERT
  5
D6D
  8
0
  2
R0603_297
 10
12.272144
 20
10.4265302
 30
0.0
 50
90.0
  0
INSERT
  5
D79
  8
0
  2
R0603_298
 10
12.2974645
 20
10.7848197
 30
0.0
 50
360.0
  0
INSERT
  5
D7D
  8
0
  2
C0603_B_299
 10
12.8747541
 20
10.1991855
 30
0.0
 50
270.0
  0
INSERT
  5
D81
  8
0
  2
C0603_B_300
 10
12.5480721
 20
10.0779291
 30
0.0
 50
180.0
  0
INSERT
  5
D85
  8
0
  2
C0603_B_301
 10
12.8209288
 20
10.2576142
 30
0.0
 50
90.0
  0
INSERT
  5
D89
  8
0
  2
C0603_B_302
 10
12.7038661
 20
10.1329291
 30
0.0
 50
360.0
  0
INSERT
  5
D95
  8
0
  2
TAJA_303
 10
11.1722487
 20
10.9973951
 30
0.0
 50
90.0
  0
INSERT
  5
D99
  8
0
  2
C0603_B_304
 10
13.1738661
 20
9.6794344
 30
0.0
 50
360.0
  0
INSERT
  5
D9D
  8
0
  2
C0603_B_305
 10
12.5804196
 20
9.691192
 30
0.0
 50
90.0
  0
INSERT
  5
DA1
  8
0
  2
C0805_B_306
 10
13.1338661
 20
9.7579291
 30
0.0
 50
360.0
  0
INSERT
  5
DA5
  8
0
  2
TAJC_B_307
 10
13.0988661
 20
9.8660459
 30
0.0
 50
270.0
  0
INSERT
  5
DA9
  8
0
  2
TAJA_B_308
 10
12.4238661
 20
9.6829291
 30
0.0
 50
180.0
  0
INSERT
  5
DAD
  8
0
  2
C0805_B_309
 10
12.5070006
 20
9.6874741
 30
0.0
 50
90.0
  0
INSERT
  5
DB1
  8
0
  2
C0603_B_310
 10
12.8209288
 20
9.8681999
 30
0.0
 50
270.0
  0
INSERT
  5
DB5
  8
0
  2
C0603_B_311
 10
12.6688661
 20
9.8424239
 30
0.0
 50
360.0
  0
INSERT
  5
DB9
  8
0
  2
C0805_B_312
 10
12.5688661
 20
9.8937165
 30
0.0
 50
90.0
  0
INSERT
  5
DBD
  8
0
  2
DO214AA_B_313
 10
13.0610046
 20
9.5629291
 30
0.0
 50
180.0
  0
INSERT
  5
DC1
  8
0
  2
QFN_36__LT3957__B_314
 10
12.8849684
 20
9.6479291
 30
0.0
 50
90.0
  0
INSERT
  5
DC5
  8
0
  2
MSOP_10_B_315
 10
12.578068
 20
10.198559
 30
0.0
 50
360.0
  0
INSERT
  5
DD1
  8
0
  2
SDR0604_1_316
 10
12.6701259
 20
9.6179291
 30
0.0
 50
270.0
  0
INSERT
  5
DD5
  8
0
  2
R0603_B_317
 10
12.7259084
 20
9.9681999
 30
0.0
 50
180.0
  0
INSERT
  5
DD9
  8
0
  2
R1206_B_318
 10
13.2333935
 20
10.1974291
 30
0.0
 50
270.0
  0
INSERT
  5
DDD
  8
0
  2
R1206_B_319
 10
13.1288661
 20
10.1974291
 30
0.0
 50
270.0
  0
INSERT
  5
DE1
  8
0
  2
R1206_B_320
 10
12.9326773
 20
10.2857262
 30
0.0
 50
360.0
  0
INSERT
  5
DE5
  8
0
  2
R1206_B_321
 10
12.9356495
 20
10.1829291
 30
0.0
 50
360.0
  0
INSERT
  5
DE9
  8
0
  2
R0603_B_322
 10
12.5162029
 20
10.1369332
 30
0.0
 50
180.0
  0
INSERT
  5
DED
  8
0
  2
R0603_B_323
 10
12.59904
 20
10.3379291
 30
0.0
 50
360.0
  0
INSERT
  5
DF1
  8
0
  2
R0603_B_324
 10
12.9615235
 20
10.095917
 30
0.0
 50
180.0
  0
INSERT
  5
DF5
  8
0
  2
R1206_B_325
 10
13.0658227
 20
9.9879291
 30
0.0
 50
180.0
  0
INSERT
  5
E01
  8
0
  2
R0603_326
 10
11.1538661
 20
11.1001729
 30
0.0
 50
270.0
  0
INSERT
  5
E05
  8
0
  2
R0603_B_327
 10
12.8495608
 20
10.0264628
 30
0.0
  0
INSERT
  5
E09
  8
0
  2
R0603_B_328
 10
12.8479201
 20
9.9631999
 30
0.0
  0
INSERT
  5
E0D
  8
0
  2
R0603_B_329
 10
12.726882
 20
9.8981999
 30
0.0
 50
180.0
  0
INSERT
  5
E11
  8
0
  2
R0603_B_330
 10
12.7157277
 20
9.7329291
 30
0.0
 50
270.0
  0
INSERT
  5
E15
  8
0
  2
R0603_B_331
 10
12.6879352
 20
9.6399559
 30
0.0
 50
180.0
  0
INSERT
  5
E19
  8
0
  2
R0603_B_332
 10
12.8814013
 20
9.8681999
 30
0.0
 50
270.0
  0
INSERT
  5
E1D
  8
0
  2
R0603_B_333
 10
12.6364156
 20
9.9279291
 30
0.0
 50
270.0
  0
INSERT
  5
E21
  8
0
  2
SOT23_B_334
 10
12.6652156
 20
9.5376664
 30
0.0
 50
180.0
  0
INSERT
  5
E25
  8
0
  2
R0603_B_335
 10
12.2888661
 20
9.8981999
 30
0.0
 50
270.0
  0
INSERT
  5
E31
  8
0
  2
C0603_336
 10
11.070645
 20
12.0458821
 30
0.0
 50
90.0
  0
INSERT
  5
E3D
  8
0
  2
TAJA_337
 10
11.4971712
 20
12.0122186
 30
0.0
 50
360.0
  0
INSERT
  5
E55
  8
0
  2
SOT23_5_338
 10
11.189645
 20
12.069662
 30
0.0
 50
90.0
  0
INSERT
  5
E61
  8
0
  2
R0603_339
 10
11.423517
 20
12.0322186
 30
0.0
 50
90.0
  0
INSERT
  5
E6D
  8
0
  2
R0603_340
 10
11.3957821
 20
11.9451745
 30
0.0
 50
180.0
  0
INSERT
  5
E79
  8
0
  2
R0603_341
 10
11.130645
 20
12.0450947
 30
0.0
 50
90.0
  0
INSERT
  5
E85
  8
0
  2
R0603_342
 10
11.1042992
 20
12.136
 30
0.0
 50
360.0
  0
INSERT
  5
E91
  8
0
  2
C0603_343
 10
11.363517
 20
12.0322186
 30
0.0
 50
270.0
  0
INSERT
  5
E95
  8
0
  2
C0603_B_344
 10
13.0438857
 20
10.5338222
 30
0.0
 50
180.0
  0
INSERT
  5
E99
  8
0
  2
TAJB_B_345
 10
11.8089251
 20
12.3079291
 30
0.0
 50
90.0
  0
INSERT
  5
E9D
  8
0
  2
C0603_B_346
 10
12.7333909
 20
10.3357241
 30
0.0
 50
180.0
  0
INSERT
  5
EA2
  8
0
  2
FIELD_347
 10
11.1806771
 20
12.2088346
 30
0.0
 50
270.0
  0
INSERT
  5
EA6
  8
0
  2
FIELD_B_348
 10
11.1806771
 20
12.2088346
 30
0.0
 50
270.0
  0
INSERT
  5
EAB
  8
0
  2
FIELD_349
 10
13.3066614
 20
9.7678897
 30
0.0
 50
270.0
  0
INSERT
  5
EAF
  8
0
  2
FIELD_B_350
 10
13.3066614
 20
9.7678897
 30
0.0
 50
270.0
  0
ENDSEC
  0
EOF
