  0
SECTION
  2
HEADER
  0
ENDSEC
  0
SECTION
  2
BLOCKS
  0
BLOCK
  8
0
  2
PCE_001
 70
0
 10
0
 20
0
  0
POLYLINE
  8
8
 66
1
  0
VERTEX
  8
8
 10
5433.17
 20
13061
  0
VERTEX
  8
8
 10
5433.17
 20
11114.3
  0
SEQEND
  0
POLYLINE
  8
8
 66
1
  0
VERTEX
  8
8
 10
889.806
 20
8591.62
  0
VERTEX
  8
8
 10
889.896
 20
11114.4
  0
SEQEND
  0
POLYLINE
  8
8
 66
1
  0
VERTEX
  8
8
 10
889.896
 20
13637.1
  0
VERTEX
  8
8
 10
889.896
 20
11114.3
  0
SEQEND
  0
POLYLINE
  8
8
 66
1
  0
VERTEX
  8
8
 10
1650.98
 20
8650.56
  0
VERTEX
  8
8
 10
1651.06
 20
11114.3
  0
SEQEND
  0
POLYLINE
  8
8
 66
1
  0
VERTEX
  8
8
 10
1651.06
 20
13578.1
  0
VERTEX
  8
8
 10
1651.06
 20
11114.3
  0
SEQEND
  0
POLYLINE
  8
8
 66
1
  0
VERTEX
  8
8
 10
2404.23
 20
8663
  0
VERTEX
  8
8
 10
2404.32
 20
11114.3
  0
SEQEND
  0
POLYLINE
  8
8
 66
1
  0
VERTEX
  8
8
 10
2404.32
 20
13565.6
  0
VERTEX
  8
8
 10
2404.32
 20
11114.3
  0
SEQEND
  0
POLYLINE
  8
8
 66
1
  0
VERTEX
  8
8
 10
3918.64
 20
8364.47
  0
VERTEX
  8
8
 10
3918.74
 20
11114.2
  0
SEQEND
  0
POLYLINE
  8
8
 66
1
  0
VERTEX
  8
8
 10
3918.74
 20
13864.1
  0
VERTEX
  8
8
 10
3918.74
 20
11114.3
  0
SEQEND
  0
POLYLINE
  8
8
 66
1
  0
VERTEX
  8
8
 10
3170
 20
8552.69
  0
VERTEX
  8
8
 10
3170.09
 20
11114.3
  0
SEQEND
  0
POLYLINE
  8
8
 66
1
  0
VERTEX
  8
8
 10
3170.09
 20
13675.9
  0
VERTEX
  8
8
 10
3170.09
 20
11114.3
  0
SEQEND
  0
POLYLINE
  8
8
 66
1
  0
VERTEX
  8
8
 10
4675.87
 20
8804.09
  0
VERTEX
  8
8
 10
4675.96
 20
11114.2
  0
SEQEND
  0
POLYLINE
  8
8
 66
1
  0
VERTEX
  8
8
 10
4675.96
 20
13424.4
  0
VERTEX
  8
8
 10
4675.96
 20
11114.3
  0
SEQEND
  0
POLYLINE
  8
8
 66
1
  0
VERTEX
  8
8
 10
5433.1
 20
9167.49
  0
VERTEX
  8
8
 10
5433.17
 20
11114.2
  0
SEQEND
  0
POLYLINE
  8
8
 66
1
  0
VERTEX
  8
8
 10
6947.52
 20
9201.18
  0
VERTEX
  8
8
 10
6947.59
 20
11114.1
  0
SEQEND
  0
POLYLINE
  8
8
 66
1
  0
VERTEX
  8
8
 10
6947.59
 20
13027.3
  0
VERTEX
  8
8
 10
6947.59
 20
11114.3
  0
SEQEND
  0
POLYLINE
  8
8
 66
1
  0
VERTEX
  8
8
 10
6190.31
 20
9265.91
  0
VERTEX
  8
8
 10
6190.38
 20
11114.2
  0
SEQEND
  0
POLYLINE
  8
8
 66
1
  0
VERTEX
  8
8
 10
6190.38
 20
12962.6
  0
VERTEX
  8
8
 10
6190.38
 20
11114.3
  0
SEQEND
  0
POLYLINE
  8
7
 66
1
  0
VERTEX
  8
7
 10
3546.41
 20
11114.3
  0
VERTEX
  8
7
 10
4355.48
 20
11114.3
  0
SEQEND
  0
TEXT
  8
19
  1
GLUV_XXL
 10
3784.36
 20
10614.3
 50
90
 40
1
  0
TEXT
  8
19
  1
GUV13XXL
 10
3884.36
 20
10614.3
 50
90
 40
1
  0
TEXT
  8
19
  1
XXL
 10
3984.36
 20
10614.3
 50
90
 40
1
  0
TEXT
  8
19
  1
S1
 10
4084.36
 20
10614.3
 50
90
 40
1
  0
POLYLINE
  8
1
 66
1
  0
VERTEX
  8
1
 10
7758.13
 20
11111.5
  0
VERTEX
  8
1
 10
7757.98
 20
11117
  0
SEQEND
  0
POLYLINE
  8
11
 66
1
  0
VERTEX
  8
11
 10
7757.98
 20
11117
  0
VERTEX
  8
11
 10
7717.99
 20
11115.9
  0
SEQEND
  0
POLYLINE
  8
1
 66
1
  0
VERTEX
  8
1
 10
7757.98
 20
11117
  0
VERTEX
  8
1
 10
7749.43
 20
11428.9
  0
VERTEX
  8
1
 10
7749.23
 20
11495.2
  0
VERTEX
  8
1
 10
7751.79
 20
11603.9
  0
VERTEX
  8
1
 10
7754.4
 20
11643.5
  0
VERTEX
  8
1
 10
7758.15
 20
11683.3
  0
VERTEX
  8
1
 10
7767.39
 20
11752.8
  0
VERTEX
  8
1
 10
7772.49
 20
11778.6
  0
VERTEX
  8
1
 10
7779.05
 20
11804.7
  0
VERTEX
  8
1
 10
7786.82
 20
11830.2
  0
VERTEX
  8
1
 10
7793.49
 20
11848.3
  0
VERTEX
  8
1
 10
7801.15
 20
11865.6
  0
VERTEX
  8
1
 10
7809.91
 20
11882.3
  0
VERTEX
  8
1
 10
7819.44
 20
11898.1
  0
VERTEX
  8
1
 10
7847.05
 20
11936.8
  0
VERTEX
  8
1
 10
7877.51
 20
11974.5
  0
VERTEX
  8
1
 10
7916.65
 20
12017.8
  0
VERTEX
  8
1
 10
7959.94
 20
12060.9
  0
VERTEX
  8
1
 10
8002.31
 20
12103.2
  0
VERTEX
  8
1
 10
7985.1
 20
12160.5
  0
VERTEX
  8
1
 10
7700.58
 20
13108.3
  0
VERTEX
  8
1
 10
7671.03
 20
13206.7
  0
VERTEX
  8
1
 10
7573.45
 20
13174.5
  0
VERTEX
  8
1
 10
7507.57
 20
13152.8
  0
VERTEX
  8
1
 10
7442.14
 20
13132.4
  0
VERTEX
  8
1
 10
7376.38
 20
13113.1
  0
VERTEX
  8
1
 10
7310.3
 20
13094.9
  0
VERTEX
  8
1
 10
7243.92
 20
13077.8
  0
VERTEX
  8
1
 10
7177.27
 20
13061.8
  0
VERTEX
  8
1
 10
7110.36
 20
13047
  0
VERTEX
  8
1
 10
7043.23
 20
13033.3
  0
VERTEX
  8
1
 10
6978.24
 20
13021.2
  0
VERTEX
  8
1
 10
6913.07
 20
13010.2
  0
VERTEX
  8
1
 10
6847.71
 20
13000.3
  0
VERTEX
  8
1
 10
6782.19
 20
12991.6
  0
VERTEX
  8
1
 10
6716.54
 20
12984
  0
VERTEX
  8
1
 10
6650.76
 20
12977.5
  0
VERTEX
  8
1
 10
6585.22
 20
12972.3
  0
VERTEX
  8
1
 10
6454.99
 20
12965
  0
VERTEX
  8
1
 10
6392.06
 20
12963
  0
VERTEX
  8
1
 10
6328.75
 20
12962.1
  0
VERTEX
  8
1
 10
6265.42
 20
12962.2
  0
VERTEX
  8
1
 10
6202.11
 20
12963.5
  0
VERTEX
  8
1
 10
6138.83
 20
12965.8
  0
VERTEX
  8
1
 10
6075.6
 20
12969.3
  0
VERTEX
  8
1
 10
6012.47
 20
12973.8
  0
VERTEX
  8
1
 10
5953.21
 20
12979.1
  0
VERTEX
  8
1
 10
5894.09
 20
12985.5
  0
VERTEX
  8
1
 10
5835.1
 20
12992.9
  0
VERTEX
  8
1
 10
5789.42
 20
12999.5
  0
SEQEND
  0
POLYLINE
  8
11
 66
1
  0
VERTEX
  8
11
 10
5789.42
 20
12999.5
  0
VERTEX
  8
11
 10
5783.49
 20
12960
  0
SEQEND
  0
POLYLINE
  8
1
 66
1
  0
VERTEX
  8
1
 10
5789.42
 20
12999.5
  0
VERTEX
  8
1
 10
5776.25
 20
13001.4
  0
VERTEX
  8
1
 10
5717.56
 20
13011
  0
VERTEX
  8
1
 10
5659.06
 20
13021.7
  0
VERTEX
  8
1
 10
5601.12
 20
13033.3
  0
VERTEX
  8
1
 10
5488.86
 20
13058.9
  0
VERTEX
  8
1
 10
5436.63
 20
13072.5
  0
VERTEX
  8
1
 10
5384.35
 20
13087.5
  0
VERTEX
  8
1
 10
5332.43
 20
13103.6
  0
VERTEX
  8
1
 10
5280.89
 20
13120.9
  0
VERTEX
  8
1
 10
5229.78
 20
13139.4
  0
VERTEX
  8
1
 10
5179.1
 20
13159.1
  0
VERTEX
  8
1
 10
5128.95
 20
13180
  0
VERTEX
  8
1
 10
5084.1
 20
13199.9
  0
VERTEX
  8
1
 10
5039.82
 20
13220.9
  0
VERTEX
  8
1
 10
4996.1
 20
13243.1
  0
VERTEX
  8
1
 10
4952.95
 20
13266.3
  0
VERTEX
  8
1
 10
4910.4
 20
13290.7
  0
VERTEX
  8
1
 10
4868.49
 20
13316.1
  0
VERTEX
  8
1
 10
4827.25
 20
13342.6
  0
VERTEX
  8
1
 10
4787.25
 20
13369.7
  0
VERTEX
  8
1
 10
4751.69
 20
13396
  0
VERTEX
  8
1
 10
4716.88
 20
13423.6
  0
VERTEX
  8
1
 10
4683.06
 20
13452.3
  0
VERTEX
  8
1
 10
4650.28
 20
13482.3
  0
VERTEX
  8
1
 10
4620.12
 20
13511.8
  0
VERTEX
  8
1
 10
4591.08
 20
13542.4
  0
VERTEX
  8
1
 10
4563.17
 20
13574.1
  0
VERTEX
  8
1
 10
4536.56
 20
13606.6
  0
VERTEX
  8
1
 10
4512.38
 20
13638.6
  0
VERTEX
  8
1
 10
4489.76
 20
13671.6
  0
VERTEX
  8
1
 10
4468.61
 20
13705.5
  0
VERTEX
  8
1
 10
4448.99
 20
13740.3
  0
VERTEX
  8
1
 10
4431.21
 20
13775.3
  0
VERTEX
  8
1
 10
4415.03
 20
13811.1
  0
VERTEX
  8
1
 10
4400.46
 20
13847.6
  0
VERTEX
  8
1
 10
4386.8
 20
13886.9
  0
VERTEX
  8
1
 10
4355.94
 20
13975.6
  0
VERTEX
  8
1
 10
4265.49
 20
13950.3
  0
VERTEX
  8
1
 10
4116.92
 20
13908.9
  0
VERTEX
  8
1
 10
3968.08
 20
13868.4
  0
VERTEX
  8
1
 10
3819.29
 20
13829.1
  0
VERTEX
  8
1
 10
3545.56
 20
13759.7
  0
VERTEX
  8
1
 10
3422.41
 20
13730
  0
VERTEX
  8
1
 10
3298.59
 20
13701.3
  0
VERTEX
  8
1
 10
3004.74
 20
13636.3
  0
VERTEX
  8
1
 10
2921.54
 20
13620.5
  0
VERTEX
  8
1
 10
2837.5
 20
13606.4
  0
VERTEX
  8
1
 10
2753.96
 20
13594
  0
VERTEX
  8
1
 10
2670.19
 20
13583.3
  0
VERTEX
  8
1
 10
2586.23
 20
13574.3
  0
VERTEX
  8
1
 10
2504.61
 20
13567.1
  0
VERTEX
  8
1
 10
2502.09
 20
13567.1
  0
SEQEND
  0
POLYLINE
  8
11
 66
1
  0
VERTEX
  8
11
 10
2502.09
 20
13567.1
  0
VERTEX
  8
11
 10
2505.17
 20
13527.2
  0
SEQEND
  0
POLYLINE
  8
1
 66
1
  0
VERTEX
  8
1
 10
2502.09
 20
13567.1
  0
VERTEX
  8
1
 10
2372.44
 20
13564.9
  0
VERTEX
  8
1
 10
2237.28
 20
13564.2
  0
VERTEX
  8
1
 10
2102.13
 20
13565
  0
VERTEX
  8
1
 10
1966.99
 20
13567.2
  0
VERTEX
  8
1
 10
1831.89
 20
13571
  0
VERTEX
  8
1
 10
1696.84
 20
13576.3
  0
VERTEX
  8
1
 10
1561.85
 20
13583.1
  0
VERTEX
  8
1
 10
1426.93
 20
13591.4
  0
VERTEX
  8
1
 10
1279
 20
13602.1
  0
VERTEX
  8
1
 10
1131.17
 20
13614.3
  0
VERTEX
  8
1
 10
983.469
 20
13628
  0
VERTEX
  8
1
 10
835.918
 20
13643.2
  0
VERTEX
  8
1
 10
688.525
 20
13659.9
  0
VERTEX
  8
1
 10
541.316
 20
13678.1
  0
VERTEX
  8
1
 10
394.296
 20
13697.8
  0
VERTEX
  8
1
 10
250.394
 20
13718.6
  0
VERTEX
  8
1
 10
232.684
 20
13620.1
  0
VERTEX
  8
1
 10
211.143
 20
13500.4
  0
VERTEX
  8
1
 10
190.765
 20
13380.4
  0
VERTEX
  8
1
 10
171.555
 20
13260.2
  0
VERTEX
  8
1
 10
153.512
 20
13139.8
  0
VERTEX
  8
1
 10
136.641
 20
13019.2
  0
VERTEX
  8
1
 10
120.94
 20
12898.5
  0
VERTEX
  8
1
 10
106.414
 20
12777.7
  0
VERTEX
  8
1
 10
93.0615
 20
12656.7
  0
VERTEX
  8
1
 10
80.4309
 20
12531.3
  0
VERTEX
  8
1
 10
68.9771
 20
12405.7
  0
VERTEX
  8
1
 10
58.7012
 20
12280.1
  0
VERTEX
  8
1
 10
49.6045
 20
12154.4
  0
VERTEX
  8
1
 10
41.687
 20
12028.6
  0
VERTEX
  8
1
 10
34.95
 20
11902.7
  0
VERTEX
  8
1
 10
29.3945
 20
11776.8
  0
VERTEX
  8
1
 10
25.0195
 20
11650.8
  0
VERTEX
  8
1
 10
29.3469
 20
11114.4
  0
SEQEND
  0
POLYLINE
  8
11
 66
1
  0
VERTEX
  8
11
 10
29.3469
 20
11114.4
  0
VERTEX
  8
11
 10
69.3456
 20
11114.7
  0
SEQEND
  0
POLYLINE
  8
1
 66
1
  0
VERTEX
  8
1
 10
29.3469
 20
11114.4
  0
VERTEX
  8
1
 10
25
 20
10577.9
  0
VERTEX
  8
1
 10
29.3701
 20
10451.9
  0
VERTEX
  8
1
 10
34.9219
 20
10326
  0
VERTEX
  8
1
 10
41.6541
 20
10200.1
  0
VERTEX
  8
1
 10
49.5667
 20
10074.3
  0
VERTEX
  8
1
 10
58.6584
 20
9948.6
  0
VERTEX
  8
1
 10
68.9307
 20
9822.96
  0
VERTEX
  8
1
 10
80.3796
 20
9697.42
  0
VERTEX
  8
1
 10
93.0066
 20
9572
  0
VERTEX
  8
1
 10
106.354
 20
9451.02
  0
VERTEX
  8
1
 10
120.876
 20
9330.17
  0
VERTEX
  8
1
 10
136.572
 20
9209.47
  0
VERTEX
  8
1
 10
153.439
 20
9088.92
  0
VERTEX
  8
1
 10
171.478
 20
8968.55
  0
VERTEX
  8
1
 10
190.684
 20
8848.35
  0
VERTEX
  8
1
 10
211.057
 20
8728.35
  0
VERTEX
  8
1
 10
232.595
 20
8608.55
  0
VERTEX
  8
1
 10
250.3
 20
8510.07
  0
VERTEX
  8
1
 10
394.204
 20
8530.85
  0
VERTEX
  8
1
 10
541.223
 20
8550.56
  0
VERTEX
  8
1
 10
688.434
 20
8568.76
  0
VERTEX
  8
1
 10
835.829
 20
8585.47
  0
VERTEX
  8
1
 10
983.378
 20
8600.67
  0
VERTEX
  8
1
 10
1131.08
 20
8614.37
  0
VERTEX
  8
1
 10
1278.91
 20
8626.57
  0
VERTEX
  8
1
 10
1426.84
 20
8637.26
  0
VERTEX
  8
1
 10
1561.76
 20
8645.56
  0
VERTEX
  8
1
 10
1696.75
 20
8652.35
  0
VERTEX
  8
1
 10
1831.8
 20
8657.63
  0
VERTEX
  8
1
 10
1966.91
 20
8661.41
  0
VERTEX
  8
1
 10
2102.04
 20
8663.68
  0
VERTEX
  8
1
 10
2237.19
 20
8664.44
  0
VERTEX
  8
1
 10
2372.35
 20
8663.69
  0
VERTEX
  8
1
 10
2502
 20
8661.52
  0
SEQEND
  0
POLYLINE
  8
11
 66
1
  0
VERTEX
  8
11
 10
2502
 20
8661.52
  0
VERTEX
  8
11
 10
2505.08
 20
8701.4
  0
SEQEND
  0
POLYLINE
  8
1
 66
1
  0
VERTEX
  8
1
 10
2502
 20
8661.52
  0
VERTEX
  8
1
 10
2504.53
 20
8661.48
  0
VERTEX
  8
1
 10
2586.14
 20
8654.36
  0
VERTEX
  8
1
 10
2670.1
 20
8645.33
  0
VERTEX
  8
1
 10
2753.87
 20
8634.63
  0
VERTEX
  8
1
 10
2837.41
 20
8622.25
  0
VERTEX
  8
1
 10
2921.45
 20
8608.08
  0
VERTEX
  8
1
 10
3004.65
 20
8592.35
  0
VERTEX
  8
1
 10
3298.5
 20
8527.27
  0
VERTEX
  8
1
 10
3422.31
 20
8498.54
  0
VERTEX
  8
1
 10
3545.46
 20
8468.91
  0
VERTEX
  8
1
 10
3819.19
 20
8399.48
  0
VERTEX
  8
1
 10
3967.98
 20
8360.13
  0
VERTEX
  8
1
 10
4116.82
 20
8319.69
  0
VERTEX
  8
1
 10
4265.39
 20
8278.23
  0
VERTEX
  8
1
 10
4355.83
 20
8253
  0
VERTEX
  8
1
 10
4386.7
 20
8341.68
  0
VERTEX
  8
1
 10
4400.36
 20
8380.91
  0
VERTEX
  8
1
 10
4414.93
 20
8417.42
  0
VERTEX
  8
1
 10
4431.11
 20
8453.23
  0
VERTEX
  8
1
 10
4448.89
 20
8488.3
  0
VERTEX
  8
1
 10
4468.52
 20
8523.09
  0
VERTEX
  8
1
 10
4489.67
 20
8556.98
  0
VERTEX
  8
1
 10
4512.29
 20
8589.92
  0
VERTEX
  8
1
 10
4536.47
 20
8621.98
  0
VERTEX
  8
1
 10
4563.09
 20
8654.47
  0
VERTEX
  8
1
 10
4590.99
 20
8686.11
  0
VERTEX
  8
1
 10
4620.03
 20
8716.72
  0
VERTEX
  8
1
 10
4650.19
 20
8746.28
  0
VERTEX
  8
1
 10
4682.97
 20
8776.19
  0
VERTEX
  8
1
 10
4716.8
 20
8804.97
  0
VERTEX
  8
1
 10
4751.61
 20
8832.56
  0
VERTEX
  8
1
 10
4787.17
 20
8858.79
  0
VERTEX
  8
1
 10
4827.17
 20
8885.93
  0
VERTEX
  8
1
 10
4868.42
 20
8912.41
  0
VERTEX
  8
1
 10
4910.32
 20
8937.84
  0
VERTEX
  8
1
 10
4952.87
 20
8962.19
  0
VERTEX
  8
1
 10
4996.02
 20
8985.45
  0
VERTEX
  8
1
 10
5039.75
 20
9007.6
  0
VERTEX
  8
1
 10
5084.02
 20
9028.64
  0
VERTEX
  8
1
 10
5128.87
 20
9048.56
  0
VERTEX
  8
1
 10
5179.03
 20
9069.4
  0
VERTEX
  8
1
 10
5229.7
 20
9089.09
  0
VERTEX
  8
1
 10
5280.82
 20
9107.6
  0
VERTEX
  8
1
 10
5332.35
 20
9124.93
  0
VERTEX
  8
1
 10
5384.28
 20
9141.06
  0
VERTEX
  8
1
 10
5436.56
 20
9155.98
  0
VERTEX
  8
1
 10
5488.79
 20
9169.59
  0
VERTEX
  8
1
 10
5601.06
 20
9195.16
  0
VERTEX
  8
1
 10
5659
 20
9206.82
  0
VERTEX
  8
1
 10
5717.5
 20
9217.48
  0
VERTEX
  8
1
 10
5776.18
 20
9227.07
  0
VERTEX
  8
1
 10
5789.35
 20
9228.98
  0
SEQEND
  0
POLYLINE
  8
11
 66
1
  0
VERTEX
  8
11
 10
5789.35
 20
9228.98
  0
VERTEX
  8
11
 10
5783.42
 20
9268.54
  0
SEQEND
  0
POLYLINE
  8
1
 66
1
  0
VERTEX
  8
1
 10
5789.35
 20
9228.98
  0
VERTEX
  8
1
 10
5835.03
 20
9235.59
  0
VERTEX
  8
1
 10
5894.03
 20
9243.04
  0
VERTEX
  8
1
 10
5953.15
 20
9249.41
  0
VERTEX
  8
1
 10
6012.4
 20
9254.7
  0
VERTEX
  8
1
 10
6075.54
 20
9259.22
  0
VERTEX
  8
1
 10
6138.77
 20
9262.65
  0
VERTEX
  8
1
 10
6202.05
 20
9264.99
  0
VERTEX
  8
1
 10
6265.36
 20
9266.25
  0
VERTEX
  8
1
 10
6328.68
 20
9266.42
  0
VERTEX
  8
1
 10
6392
 20
9265.5
  0
VERTEX
  8
1
 10
6454.93
 20
9263.51
  0
VERTEX
  8
1
 10
6585.15
 20
9256.2
  0
VERTEX
  8
1
 10
6650.69
 20
9250.92
  0
VERTEX
  8
1
 10
6716.47
 20
9244.47
  0
VERTEX
  8
1
 10
6782.13
 20
9236.88
  0
VERTEX
  8
1
 10
6847.64
 20
9228.16
  0
VERTEX
  8
1
 10
6913
 20
9218.29
  0
VERTEX
  8
1
 10
6978.17
 20
9207.3
  0
VERTEX
  8
1
 10
7043.16
 20
9195.17
  0
VERTEX
  8
1
 10
7110.29
 20
9181.45
  0
VERTEX
  8
1
 10
7177.2
 20
9166.61
  0
VERTEX
  8
1
 10
7243.85
 20
9150.64
  0
VERTEX
  8
1
 10
7310.23
 20
9133.56
  0
VERTEX
  8
1
 10
7376.31
 20
9115.37
  0
VERTEX
  8
1
 10
7442.07
 20
9096.08
  0
VERTEX
  8
1
 10
7507.5
 20
9075.68
  0
VERTEX
  8
1
 10
7573.38
 20
9053.93
  0
VERTEX
  8
1
 10
7670.96
 20
9021.71
  0
VERTEX
  8
1
 10
7700.51
 20
9120.13
  0
VERTEX
  8
1
 10
7985.07
 20
10067.9
  0
VERTEX
  8
1
 10
8002.27
 20
10125.2
  0
VERTEX
  8
1
 10
7959.91
 20
10167.5
  0
VERTEX
  8
1
 10
7916.62
 20
10210.7
  0
VERTEX
  8
1
 10
7877.48
 20
10253.9
  0
VERTEX
  8
1
 10
7847.02
 20
10291.6
  0
VERTEX
  8
1
 10
7819.42
 20
10330.4
  0
VERTEX
  8
1
 10
7809.88
 20
10346.1
  0
VERTEX
  8
1
 10
7801.13
 20
10362.9
  0
VERTEX
  8
1
 10
7793.46
 20
10380.2
  0
VERTEX
  8
1
 10
7786.8
 20
10398.2
  0
VERTEX
  8
1
 10
7779.03
 20
10423.7
  0
VERTEX
  8
1
 10
7772.47
 20
10449.8
  0
VERTEX
  8
1
 10
7767.36
 20
10475.6
  0
VERTEX
  8
1
 10
7758.13
 20
10545.2
  0
VERTEX
  8
1
 10
7754.38
 20
10584.9
  0
VERTEX
  8
1
 10
7751.77
 20
10624.5
  0
VERTEX
  8
1
 10
7749.22
 20
10733.2
  0
VERTEX
  8
1
 10
7749.42
 20
10799.6
  0
VERTEX
  8
1
 10
7757.98
 20
11111.5
  0
SEQEND
  0
POLYLINE
  8
11
 66
1
  0
VERTEX
  8
11
 10
7757.98
 20
11111.5
  0
VERTEX
  8
11
 10
7717.99
 20
11112.5
  0
SEQEND
  0
POLYLINE
  8
1
 66
1
  0
VERTEX
  8
1
 10
7757.98
 20
11111.5
  0
VERTEX
  8
1
 10
7758.13
 20
11111.5
  0
SEQEND
  0
ENDBLK
  0
BLOCK
  8
0
  2
PCE_002
 70
0
 10
0
 20
0
  0
POLYLINE
  8
8
 66
1
  0
VERTEX
  8
8
 10
5433.17
 20
4833.02
  0
VERTEX
  8
8
 10
5433.17
 20
2886.32
  0
SEQEND
  0
POLYLINE
  8
8
 66
1
  0
VERTEX
  8
8
 10
889.806
 20
363.616
  0
VERTEX
  8
8
 10
889.896
 20
2886.36
  0
SEQEND
  0
POLYLINE
  8
8
 66
1
  0
VERTEX
  8
8
 10
889.896
 20
5409.06
  0
VERTEX
  8
8
 10
889.896
 20
2886.32
  0
SEQEND
  0
POLYLINE
  8
8
 66
1
  0
VERTEX
  8
8
 10
1650.98
 20
422.564
  0
VERTEX
  8
8
 10
1651.06
 20
2886.33
  0
SEQEND
  0
POLYLINE
  8
8
 66
1
  0
VERTEX
  8
8
 10
1651.06
 20
5350.09
  0
VERTEX
  8
8
 10
1651.06
 20
2886.32
  0
SEQEND
  0
POLYLINE
  8
8
 66
1
  0
VERTEX
  8
8
 10
2404.23
 20
434.998
  0
VERTEX
  8
8
 10
2404.32
 20
2886.3
  0
SEQEND
  0
POLYLINE
  8
8
 66
1
  0
VERTEX
  8
8
 10
2404.32
 20
5337.62
  0
VERTEX
  8
8
 10
2404.32
 20
2886.32
  0
SEQEND
  0
POLYLINE
  8
8
 66
1
  0
VERTEX
  8
8
 10
3918.64
 20
136.469
  0
VERTEX
  8
8
 10
3918.74
 20
2886.25
  0
SEQEND
  0
POLYLINE
  8
8
 66
1
  0
VERTEX
  8
8
 10
3918.74
 20
5636.1
  0
VERTEX
  8
8
 10
3918.74
 20
2886.32
  0
SEQEND
  0
POLYLINE
  8
8
 66
1
  0
VERTEX
  8
8
 10
3170
 20
324.686
  0
VERTEX
  8
8
 10
3170.09
 20
2886.27
  0
SEQEND
  0
POLYLINE
  8
8
 66
1
  0
VERTEX
  8
8
 10
3170.09
 20
5447.91
  0
VERTEX
  8
8
 10
3170.09
 20
2886.32
  0
SEQEND
  0
POLYLINE
  8
8
 66
1
  0
VERTEX
  8
8
 10
4675.87
 20
576.095
  0
VERTEX
  8
8
 10
4675.96
 20
2886.22
  0
SEQEND
  0
POLYLINE
  8
8
 66
1
  0
VERTEX
  8
8
 10
4675.96
 20
5196.45
  0
VERTEX
  8
8
 10
4675.96
 20
2886.32
  0
SEQEND
  0
POLYLINE
  8
8
 66
1
  0
VERTEX
  8
8
 10
5433.1
 20
939.492
  0
VERTEX
  8
8
 10
5433.17
 20
2886.19
  0
SEQEND
  0
POLYLINE
  8
8
 66
1
  0
VERTEX
  8
8
 10
6947.52
 20
973.175
  0
VERTEX
  8
8
 10
6947.59
 20
2886.14
  0
SEQEND
  0
POLYLINE
  8
8
 66
1
  0
VERTEX
  8
8
 10
6947.59
 20
4799.28
  0
VERTEX
  8
8
 10
6947.59
 20
2886.32
  0
SEQEND
  0
POLYLINE
  8
8
 66
1
  0
VERTEX
  8
8
 10
6190.31
 20
1037.91
  0
VERTEX
  8
8
 10
6190.38
 20
2886.17
  0
SEQEND
  0
POLYLINE
  8
8
 66
1
  0
VERTEX
  8
8
 10
6190.38
 20
4734.58
  0
VERTEX
  8
8
 10
6190.38
 20
2886.32
  0
SEQEND
  0
POLYLINE
  8
7
 66
1
  0
VERTEX
  8
7
 10
3546.41
 20
2886.27
  0
VERTEX
  8
7
 10
4355.48
 20
2886.27
  0
SEQEND
  0
TEXT
  8
19
  1
GLUV_XXL
 10
3784.36
 20
2386.28
 50
90
 40
1
  0
TEXT
  8
19
  1
GUV13XXL
 10
3884.36
 20
2386.28
 50
90
 40
1
  0
TEXT
  8
19
  1
XXL
 10
3984.36
 20
2386.28
 50
90
 40
1
  0
TEXT
  8
19
  1
S1
 10
4084.36
 20
2386.28
 50
90
 40
1
  0
POLYLINE
  8
1
 66
1
  0
VERTEX
  8
1
 10
7758.13
 20
2883.48
  0
VERTEX
  8
1
 10
7757.98
 20
2888.96
  0
SEQEND
  0
POLYLINE
  8
11
 66
1
  0
VERTEX
  8
11
 10
7757.98
 20
2888.96
  0
VERTEX
  8
11
 10
7717.99
 20
2887.93
  0
SEQEND
  0
POLYLINE
  8
1
 66
1
  0
VERTEX
  8
1
 10
7757.98
 20
2888.96
  0
VERTEX
  8
1
 10
7749.43
 20
3200.86
  0
VERTEX
  8
1
 10
7749.23
 20
3267.23
  0
VERTEX
  8
1
 10
7751.79
 20
3375.9
  0
VERTEX
  8
1
 10
7754.4
 20
3415.51
  0
VERTEX
  8
1
 10
7758.15
 20
3455.26
  0
VERTEX
  8
1
 10
7767.39
 20
3524.8
  0
VERTEX
  8
1
 10
7772.49
 20
3550.6
  0
VERTEX
  8
1
 10
7779.05
 20
3576.75
  0
VERTEX
  8
1
 10
7786.82
 20
3602.21
  0
VERTEX
  8
1
 10
7793.49
 20
3620.27
  0
VERTEX
  8
1
 10
7801.15
 20
3637.57
  0
VERTEX
  8
1
 10
7809.91
 20
3654.34
  0
VERTEX
  8
1
 10
7819.44
 20
3670.07
  0
VERTEX
  8
1
 10
7847.05
 20
3708.79
  0
VERTEX
  8
1
 10
7877.51
 20
3746.5
  0
VERTEX
  8
1
 10
7916.65
 20
3789.77
  0
VERTEX
  8
1
 10
7959.94
 20
3832.94
  0
VERTEX
  8
1
 10
8002.31
 20
3875.19
  0
VERTEX
  8
1
 10
7985.1
 20
3932.5
  0
VERTEX
  8
1
 10
7700.58
 20
4880.3
  0
VERTEX
  8
1
 10
7671.03
 20
4978.72
  0
VERTEX
  8
1
 10
7573.45
 20
4946.51
  0
VERTEX
  8
1
 10
7507.57
 20
4924.76
  0
VERTEX
  8
1
 10
7442.14
 20
4904.36
  0
VERTEX
  8
1
 10
7376.38
 20
4885.07
  0
VERTEX
  8
1
 10
7310.3
 20
4866.88
  0
VERTEX
  8
1
 10
7243.92
 20
4849.81
  0
VERTEX
  8
1
 10
7177.27
 20
4833.85
  0
VERTEX
  8
1
 10
7110.36
 20
4819
  0
VERTEX
  8
1
 10
7043.23
 20
4805.29
  0
VERTEX
  8
1
 10
6978.24
 20
4793.16
  0
VERTEX
  8
1
 10
6913.07
 20
4782.17
  0
VERTEX
  8
1
 10
6847.71
 20
4772.31
  0
VERTEX
  8
1
 10
6782.19
 20
4763.58
  0
VERTEX
  8
1
 10
6716.54
 20
4756
  0
VERTEX
  8
1
 10
6650.76
 20
4749.55
  0
VERTEX
  8
1
 10
6585.22
 20
4744.27
  0
VERTEX
  8
1
 10
6454.99
 20
4736.97
  0
VERTEX
  8
1
 10
6392.06
 20
4734.98
  0
VERTEX
  8
1
 10
6328.75
 20
4734.06
  0
VERTEX
  8
1
 10
6265.42
 20
4734.23
  0
VERTEX
  8
1
 10
6202.11
 20
4735.49
  0
VERTEX
  8
1
 10
6138.83
 20
4737.84
  0
VERTEX
  8
1
 10
6075.6
 20
4741.27
  0
VERTEX
  8
1
 10
6012.47
 20
4745.79
  0
VERTEX
  8
1
 10
5953.21
 20
4751.09
  0
VERTEX
  8
1
 10
5894.09
 20
4757.46
  0
VERTEX
  8
1
 10
5835.1
 20
4764.91
  0
VERTEX
  8
1
 10
5789.42
 20
4771.52
  0
SEQEND
  0
POLYLINE
  8
11
 66
1
  0
VERTEX
  8
11
 10
5789.42
 20
4771.52
  0
VERTEX
  8
11
 10
5783.49
 20
4731.97
  0
SEQEND
  0
POLYLINE
  8
1
 66
1
  0
VERTEX
  8
1
 10
5789.42
 20
4771.52
  0
VERTEX
  8
1
 10
5776.25
 20
4773.43
  0
VERTEX
  8
1
 10
5717.56
 20
4783.03
  0
VERTEX
  8
1
 10
5659.06
 20
4793.69
  0
VERTEX
  8
1
 10
5601.12
 20
4805.34
  0
VERTEX
  8
1
 10
5488.86
 20
4830.92
  0
VERTEX
  8
1
 10
5436.63
 20
4844.53
  0
VERTEX
  8
1
 10
5384.35
 20
4859.46
  0
VERTEX
  8
1
 10
5332.43
 20
4875.59
  0
VERTEX
  8
1
 10
5280.89
 20
4892.92
  0
VERTEX
  8
1
 10
5229.78
 20
4911.43
  0
VERTEX
  8
1
 10
5179.1
 20
4931.13
  0
VERTEX
  8
1
 10
5128.95
 20
4951.96
  0
VERTEX
  8
1
 10
5084.1
 20
4971.89
  0
VERTEX
  8
1
 10
5039.82
 20
4992.93
  0
VERTEX
  8
1
 10
4996.1
 20
5015.08
  0
VERTEX
  8
1
 10
4952.95
 20
5038.34
  0
VERTEX
  8
1
 10
4910.4
 20
5062.7
  0
VERTEX
  8
1
 10
4868.49
 20
5088.12
  0
VERTEX
  8
1
 10
4827.25
 20
5114.61
  0
VERTEX
  8
1
 10
4787.25
 20
5141.75
  0
VERTEX
  8
1
 10
4751.69
 20
5167.97
  0
VERTEX
  8
1
 10
4716.88
 20
5195.57
  0
VERTEX
  8
1
 10
4683.06
 20
5224.35
  0
VERTEX
  8
1
 10
4650.28
 20
5254.26
  0
VERTEX
  8
1
 10
4620.12
 20
5283.83
  0
VERTEX
  8
1
 10
4591.08
 20
5314.43
  0
VERTEX
  8
1
 10
4563.17
 20
5346.08
  0
VERTEX
  8
1
 10
4536.56
 20
5378.56
  0
VERTEX
  8
1
 10
4512.38
 20
5410.63
  0
VERTEX
  8
1
 10
4489.76
 20
5443.56
  0
VERTEX
  8
1
 10
4468.61
 20
5477.46
  0
VERTEX
  8
1
 10
4448.99
 20
5512.25
  0
VERTEX
  8
1
 10
4431.21
 20
5547.32
  0
VERTEX
  8
1
 10
4415.03
 20
5583.13
  0
VERTEX
  8
1
 10
4400.46
 20
5619.64
  0
VERTEX
  8
1
 10
4386.8
 20
5658.87
  0
VERTEX
  8
1
 10
4355.94
 20
5747.55
  0
VERTEX
  8
1
 10
4265.49
 20
5722.32
  0
VERTEX
  8
1
 10
4116.92
 20
5680.87
  0
VERTEX
  8
1
 10
3968.08
 20
5640.43
  0
VERTEX
  8
1
 10
3819.29
 20
5601.09
  0
VERTEX
  8
1
 10
3545.56
 20
5531.67
  0
VERTEX
  8
1
 10
3422.41
 20
5502.04
  0
VERTEX
  8
1
 10
3298.59
 20
5473.33
  0
VERTEX
  8
1
 10
3004.74
 20
5408.25
  0
VERTEX
  8
1
 10
2921.54
 20
5392.53
  0
VERTEX
  8
1
 10
2837.5
 20
5378.36
  0
VERTEX
  8
1
 10
2753.96
 20
5365.98
  0
VERTEX
  8
1
 10
2670.19
 20
5355.28
  0
VERTEX
  8
1
 10
2586.23
 20
5346.26
  0
VERTEX
  8
1
 10
2504.61
 20
5339.14
  0
VERTEX
  8
1
 10
2502.09
 20
5339.1
  0
SEQEND
  0
POLYLINE
  8
11
 66
1
  0
VERTEX
  8
11
 10
2502.09
 20
5339.1
  0
VERTEX
  8
11
 10
2505.17
 20
5299.21
  0
SEQEND
  0
POLYLINE
  8
1
 66
1
  0
VERTEX
  8
1
 10
2502.09
 20
5339.1
  0
VERTEX
  8
1
 10
2372.44
 20
5336.93
  0
VERTEX
  8
1
 10
2237.28
 20
5336.19
  0
VERTEX
  8
1
 10
2102.13
 20
5336.95
  0
VERTEX
  8
1
 10
1966.99
 20
5339.23
  0
VERTEX
  8
1
 10
1831.89
 20
5343.01
  0
VERTEX
  8
1
 10
1696.84
 20
5348.3
  0
VERTEX
  8
1
 10
1561.85
 20
5355.1
  0
VERTEX
  8
1
 10
1426.93
 20
5363.4
  0
VERTEX
  8
1
 10
1279
 20
5374.1
  0
VERTEX
  8
1
 10
1131.17
 20
5386.3
  0
VERTEX
  8
1
 10
983.469
 20
5400
  0
VERTEX
  8
1
 10
835.918
 20
5415.21
  0
VERTEX
  8
1
 10
688.525
 20
5431.92
  0
VERTEX
  8
1
 10
541.316
 20
5450.13
  0
VERTEX
  8
1
 10
394.296
 20
5469.84
  0
VERTEX
  8
1
 10
250.394
 20
5490.63
  0
VERTEX
  8
1
 10
232.684
 20
5392.15
  0
VERTEX
  8
1
 10
211.143
 20
5272.35
  0
VERTEX
  8
1
 10
190.765
 20
5152.35
  0
VERTEX
  8
1
 10
171.555
 20
5032.16
  0
VERTEX
  8
1
 10
153.512
 20
4911.78
  0
VERTEX
  8
1
 10
136.641
 20
4791.24
  0
VERTEX
  8
1
 10
120.94
 20
4670.54
  0
VERTEX
  8
1
 10
106.414
 20
4549.69
  0
VERTEX
  8
1
 10
93.0615
 20
4428.7
  0
VERTEX
  8
1
 10
80.4309
 20
4303.28
  0
VERTEX
  8
1
 10
68.9771
 20
4177.75
  0
VERTEX
  8
1
 10
58.7012
 20
4052.11
  0
VERTEX
  8
1
 10
49.6045
 20
3926.38
  0
VERTEX
  8
1
 10
41.687
 20
3800.57
  0
VERTEX
  8
1
 10
34.95
 20
3674.7
  0
VERTEX
  8
1
 10
29.3945
 20
3548.76
  0
VERTEX
  8
1
 10
25.0195
 20
3422.78
  0
VERTEX
  8
1
 10
29.3469
 20
2886.35
  0
SEQEND
  0
POLYLINE
  8
11
 66
1
  0
VERTEX
  8
11
 10
29.3469
 20
2886.35
  0
VERTEX
  8
11
 10
69.3456
 20
2886.68
  0
SEQEND
  0
POLYLINE
  8
1
 66
1
  0
VERTEX
  8
1
 10
29.3469
 20
2886.35
  0
VERTEX
  8
1
 10
25
 20
2349.93
  0
VERTEX
  8
1
 10
29.3701
 20
2223.94
  0
VERTEX
  8
1
 10
34.9219
 20
2098.01
  0
VERTEX
  8
1
 10
41.6541
 20
1972.13
  0
VERTEX
  8
1
 10
49.5667
 20
1846.33
  0
VERTEX
  8
1
 10
58.6584
 20
1720.6
  0
VERTEX
  8
1
 10
68.9307
 20
1594.96
  0
VERTEX
  8
1
 10
80.3796
 20
1469.42
  0
VERTEX
  8
1
 10
93.0066
 20
1344
  0
VERTEX
  8
1
 10
106.354
 20
1223.02
  0
VERTEX
  8
1
 10
120.876
 20
1102.17
  0
VERTEX
  8
1
 10
136.572
 20
981.465
  0
VERTEX
  8
1
 10
153.439
 20
860.921
  0
VERTEX
  8
1
 10
171.478
 20
740.546
  0
VERTEX
  8
1
 10
190.684
 20
620.351
  0
VERTEX
  8
1
 10
211.057
 20
500.35
  0
VERTEX
  8
1
 10
232.595
 20
380.551
  0
VERTEX
  8
1
 10
250.3
 20
282.071
  0
VERTEX
  8
1
 10
394.204
 20
302.851
  0
VERTEX
  8
1
 10
541.223
 20
322.558
  0
VERTEX
  8
1
 10
688.434
 20
340.763
  0
VERTEX
  8
1
 10
835.829
 20
357.468
  0
VERTEX
  8
1
 10
983.378
 20
372.672
  0
VERTEX
  8
1
 10
1131.08
 20
386.372
  0
VERTEX
  8
1
 10
1278.91
 20
398.568
  0
VERTEX
  8
1
 10
1426.84
 20
409.255
  0
VERTEX
  8
1
 10
1561.76
 20
417.556
  0
VERTEX
  8
1
 10
1696.75
 20
424.349
  0
VERTEX
  8
1
 10
1831.8
 20
429.633
  0
VERTEX
  8
1
 10
1966.91
 20
433.41
  0
VERTEX
  8
1
 10
2102.04
 20
435.68
  0
VERTEX
  8
1
 10
2237.19
 20
436.439
  0
VERTEX
  8
1
 10
2372.35
 20
435.689
  0
VERTEX
  8
1
 10
2502
 20
433.523
  0
SEQEND
  0
POLYLINE
  8
11
 66
1
  0
VERTEX
  8
11
 10
2502
 20
433.523
  0
VERTEX
  8
11
 10
2505.08
 20
473.404
  0
SEQEND
  0
POLYLINE
  8
1
 66
1
  0
VERTEX
  8
1
 10
2502
 20
433.523
  0
VERTEX
  8
1
 10
2504.53
 20
433.481
  0
VERTEX
  8
1
 10
2586.14
 20
426.358
  0
VERTEX
  8
1
 10
2670.1
 20
417.333
  0
VERTEX
  8
1
 10
2753.87
 20
406.629
  0
VERTEX
  8
1
 10
2837.41
 20
394.25
  0
VERTEX
  8
1
 10
2921.45
 20
380.079
  0
VERTEX
  8
1
 10
3004.65
 20
364.347
  0
VERTEX
  8
1
 10
3298.5
 20
299.265
  0
VERTEX
  8
1
 10
3422.31
 20
270.541
  0
VERTEX
  8
1
 10
3545.46
 20
240.909
  0
VERTEX
  8
1
 10
3819.19
 20
171.483
  0
VERTEX
  8
1
 10
3967.98
 20
132.131
  0
VERTEX
  8
1
 10
4116.82
 20
91.6864
  0
VERTEX
  8
1
 10
4265.39
 20
50.235
  0
VERTEX
  8
1
 10
4355.83
 20
25
  0
VERTEX
  8
1
 10
4386.7
 20
113.683
  0
VERTEX
  8
1
 10
4400.36
 20
152.91
  0
VERTEX
  8
1
 10
4414.93
 20
189.416
  0
VERTEX
  8
1
 10
4431.11
 20
225.229
  0
VERTEX
  8
1
 10
4448.89
 20
260.301
  0
VERTEX
  8
1
 10
4468.52
 20
295.086
  0
VERTEX
  8
1
 10
4489.67
 20
328.983
  0
VERTEX
  8
1
 10
4512.29
 20
361.919
  0
VERTEX
  8
1
 10
4536.47
 20
393.979
  0
VERTEX
  8
1
 10
4563.09
 20
426.47
  0
VERTEX
  8
1
 10
4590.99
 20
458.109
  0
VERTEX
  8
1
 10
4620.03
 20
488.72
  0
VERTEX
  8
1
 10
4650.19
 20
518.281
  0
VERTEX
  8
1
 10
4682.97
 20
548.192
  0
VERTEX
  8
1
 10
4716.8
 20
576.975
  0
VERTEX
  8
1
 10
4751.61
 20
604.563
  0
VERTEX
  8
1
 10
4787.17
 20
630.789
  0
VERTEX
  8
1
 10
4827.17
 20
657.93
  0
VERTEX
  8
1
 10
4868.42
 20
684.413
  0
VERTEX
  8
1
 10
4910.32
 20
709.836
  0
VERTEX
  8
1
 10
4952.87
 20
734.188
  0
VERTEX
  8
1
 10
4996.02
 20
757.448
  0
VERTEX
  8
1
 10
5039.75
 20
779.602
  0
VERTEX
  8
1
 10
5084.02
 20
800.636
  0
VERTEX
  8
1
 10
5128.87
 20
820.559
  0
VERTEX
  8
1
 10
5179.03
 20
841.397
  0
VERTEX
  8
1
 10
5229.7
 20
861.088
  0
VERTEX
  8
1
 10
5280.82
 20
879.601
  0
VERTEX
  8
1
 10
5332.35
 20
896.927
  0
VERTEX
  8
1
 10
5384.28
 20
913.057
  0
VERTEX
  8
1
 10
5436.56
 20
927.98
  0
VERTEX
  8
1
 10
5488.79
 20
941.591
  0
VERTEX
  8
1
 10
5601.06
 20
967.164
  0
VERTEX
  8
1
 10
5659
 20
978.818
  0
VERTEX
  8
1
 10
5717.5
 20
989.478
  0
VERTEX
  8
1
 10
5776.18
 20
999.071
  0
VERTEX
  8
1
 10
5789.35
 20
1000.98
  0
SEQEND
  0
POLYLINE
  8
11
 66
1
  0
VERTEX
  8
11
 10
5789.35
 20
1000.98
  0
VERTEX
  8
11
 10
5783.42
 20
1040.54
  0
SEQEND
  0
POLYLINE
  8
1
 66
1
  0
VERTEX
  8
1
 10
5789.35
 20
1000.98
  0
VERTEX
  8
1
 10
5835.03
 20
1007.59
  0
VERTEX
  8
1
 10
5894.03
 20
1015.04
  0
VERTEX
  8
1
 10
5953.15
 20
1021.41
  0
VERTEX
  8
1
 10
6012.4
 20
1026.7
  0
VERTEX
  8
1
 10
6075.54
 20
1031.22
  0
VERTEX
  8
1
 10
6138.77
 20
1034.65
  0
VERTEX
  8
1
 10
6202.05
 20
1036.99
  0
VERTEX
  8
1
 10
6265.36
 20
1038.25
  0
VERTEX
  8
1
 10
6328.68
 20
1038.42
  0
VERTEX
  8
1
 10
6392
 20
1037.5
  0
VERTEX
  8
1
 10
6454.93
 20
1035.51
  0
VERTEX
  8
1
 10
6585.15
 20
1028.2
  0
VERTEX
  8
1
 10
6650.69
 20
1022.92
  0
VERTEX
  8
1
 10
6716.47
 20
1016.47
  0
VERTEX
  8
1
 10
6782.13
 20
1008.88
  0
VERTEX
  8
1
 10
6847.64
 20
1000.16
  0
VERTEX
  8
1
 10
6913
 20
990.292
  0
VERTEX
  8
1
 10
6978.17
 20
979.296
  0
VERTEX
  8
1
 10
7043.16
 20
967.168
  0
VERTEX
  8
1
 10
7110.29
 20
953.45
  0
VERTEX
  8
1
 10
7177.2
 20
938.605
  0
VERTEX
  8
1
 10
7243.85
 20
922.641
  0
VERTEX
  8
1
 10
7310.23
 20
905.562
  0
VERTEX
  8
1
 10
7376.31
 20
887.372
  0
VERTEX
  8
1
 10
7442.07
 20
868.077
  0
VERTEX
  8
1
 10
7507.5
 20
847.682
  0
VERTEX
  8
1
 10
7573.38
 20
825.931
  0
VERTEX
  8
1
 10
7670.96
 20
793.711
  0
VERTEX
  8
1
 10
7700.51
 20
892.133
  0
VERTEX
  8
1
 10
7985.07
 20
1839.93
  0
VERTEX
  8
1
 10
8002.27
 20
1897.23
  0
VERTEX
  8
1
 10
7959.91
 20
1939.48
  0
VERTEX
  8
1
 10
7916.62
 20
1982.66
  0
VERTEX
  8
1
 10
7877.48
 20
2025.92
  0
VERTEX
  8
1
 10
7847.02
 20
2063.63
  0
VERTEX
  8
1
 10
7819.42
 20
2102.36
  0
VERTEX
  8
1
 10
7809.88
 20
2118.09
  0
VERTEX
  8
1
 10
7801.13
 20
2134.86
  0
VERTEX
  8
1
 10
7793.46
 20
2152.16
  0
VERTEX
  8
1
 10
7786.8
 20
2170.22
  0
VERTEX
  8
1
 10
7779.03
 20
2195.68
  0
VERTEX
  8
1
 10
7772.47
 20
2221.83
  0
VERTEX
  8
1
 10
7767.36
 20
2247.63
  0
VERTEX
  8
1
 10
7758.13
 20
2317.17
  0
VERTEX
  8
1
 10
7754.38
 20
2356.92
  0
VERTEX
  8
1
 10
7751.77
 20
2396.53
  0
VERTEX
  8
1
 10
7749.22
 20
2505.2
  0
VERTEX
  8
1
 10
7749.42
 20
2571.57
  0
VERTEX
  8
1
 10
7757.98
 20
2883.47
  0
SEQEND
  0
POLYLINE
  8
11
 66
1
  0
VERTEX
  8
11
 10
7757.98
 20
2883.47
  0
VERTEX
  8
11
 10
7717.99
 20
2884.5
  0
SEQEND
  0
POLYLINE
  8
1
 66
1
  0
VERTEX
  8
1
 10
7757.98
 20
2883.47
  0
VERTEX
  8
1
 10
7758.13
 20
2883.48
  0
SEQEND
  0
ENDBLK
  0
BLOCK
  8
0
  2
PCE_003
 70
0
 10
0
 20
0
  0
POLYLINE
  8
8
 66
1
  0
VERTEX
  8
8
 10
7641.41
 20
5053.73
  0
VERTEX
  8
8
 10
7641.41
 20
7000.43
  0
SEQEND
  0
POLYLINE
  8
8
 66
1
  0
VERTEX
  8
8
 10
12184.8
 20
9523.13
  0
VERTEX
  8
8
 10
12184.7
 20
7000.39
  0
SEQEND
  0
POLYLINE
  8
8
 66
1
  0
VERTEX
  8
8
 10
12184.7
 20
4477.69
  0
VERTEX
  8
8
 10
12184.7
 20
7000.43
  0
SEQEND
  0
POLYLINE
  8
8
 66
1
  0
VERTEX
  8
8
 10
11423.6
 20
9464.19
  0
VERTEX
  8
8
 10
11423.5
 20
7000.42
  0
SEQEND
  0
POLYLINE
  8
8
 66
1
  0
VERTEX
  8
8
 10
11423.5
 20
4536.66
  0
VERTEX
  8
8
 10
11423.5
 20
7000.43
  0
SEQEND
  0
POLYLINE
  8
8
 66
1
  0
VERTEX
  8
8
 10
10670.4
 20
9451.75
  0
VERTEX
  8
8
 10
10670.3
 20
7000.45
  0
SEQEND
  0
POLYLINE
  8
8
 66
1
  0
VERTEX
  8
8
 10
10670.3
 20
4549.13
  0
VERTEX
  8
8
 10
10670.3
 20
7000.43
  0
SEQEND
  0
POLYLINE
  8
8
 66
1
  0
VERTEX
  8
8
 10
9155.94
 20
9750.28
  0
VERTEX
  8
8
 10
9155.84
 20
7000.5
  0
SEQEND
  0
POLYLINE
  8
8
 66
1
  0
VERTEX
  8
8
 10
9155.84
 20
4250.65
  0
VERTEX
  8
8
 10
9155.84
 20
7000.43
  0
SEQEND
  0
POLYLINE
  8
8
 66
1
  0
VERTEX
  8
8
 10
9904.59
 20
9562.06
  0
VERTEX
  8
8
 10
9904.49
 20
7000.48
  0
SEQEND
  0
POLYLINE
  8
8
 66
1
  0
VERTEX
  8
8
 10
9904.49
 20
4438.84
  0
VERTEX
  8
8
 10
9904.49
 20
7000.43
  0
SEQEND
  0
POLYLINE
  8
8
 66
1
  0
VERTEX
  8
8
 10
8398.71
 20
9310.65
  0
VERTEX
  8
8
 10
8398.63
 20
7000.53
  0
SEQEND
  0
POLYLINE
  8
8
 66
1
  0
VERTEX
  8
8
 10
8398.63
 20
4690.3
  0
VERTEX
  8
8
 10
8398.63
 20
7000.43
  0
SEQEND
  0
POLYLINE
  8
8
 66
1
  0
VERTEX
  8
8
 10
7641.48
 20
8947.26
  0
VERTEX
  8
8
 10
7641.41
 20
7000.56
  0
SEQEND
  0
POLYLINE
  8
8
 66
1
  0
VERTEX
  8
8
 10
6127.06
 20
8913.57
  0
VERTEX
  8
8
 10
6126.99
 20
7000.61
  0
SEQEND
  0
POLYLINE
  8
8
 66
1
  0
VERTEX
  8
8
 10
6126.99
 20
5087.47
  0
VERTEX
  8
8
 10
6126.99
 20
7000.43
  0
SEQEND
  0
POLYLINE
  8
8
 66
1
  0
VERTEX
  8
8
 10
6884.27
 20
8848.84
  0
VERTEX
  8
8
 10
6884.2
 20
7000.58
  0
SEQEND
  0
POLYLINE
  8
8
 66
1
  0
VERTEX
  8
8
 10
6884.2
 20
5152.17
  0
VERTEX
  8
8
 10
6884.2
 20
7000.43
  0
SEQEND
  0
POLYLINE
  8
7
 66
1
  0
VERTEX
  8
7
 10
9528.18
 20
7000.48
  0
VERTEX
  8
7
 10
8719.1
 20
7000.48
  0
SEQEND
  0
TEXT
  8
19
  1
GLUV_XXL
 10
8831.64
 20
6500.47
 50
90
 40
1
  0
TEXT
  8
19
  1
GUV13XXL
 10
8931.64
 20
6500.47
 50
90
 40
1
  0
TEXT
  8
19
  1
XXL
 10
9031.64
 20
6500.47
 50
90
 40
1
  0
TEXT
  8
19
  1
S1
 10
9131.64
 20
6500.47
 50
90
 40
1
  0
POLYLINE
  8
1
 66
1
  0
VERTEX
  8
1
 10
5316.45
 20
7003.27
  0
VERTEX
  8
1
 10
5316.6
 20
6997.79
  0
SEQEND
  0
POLYLINE
  8
11
 66
1
  0
VERTEX
  8
11
 10
5316.6
 20
6997.79
  0
VERTEX
  8
11
 10
5356.59
 20
6998.82
  0
SEQEND
  0
POLYLINE
  8
1
 66
1
  0
VERTEX
  8
1
 10
5316.6
 20
6997.79
  0
VERTEX
  8
1
 10
5325.15
 20
6685.89
  0
VERTEX
  8
1
 10
5325.35
 20
6619.52
  0
VERTEX
  8
1
 10
5322.8
 20
6510.85
  0
VERTEX
  8
1
 10
5320.18
 20
6471.24
  0
VERTEX
  8
1
 10
5316.43
 20
6431.49
  0
VERTEX
  8
1
 10
5307.2
 20
6361.95
  0
VERTEX
  8
1
 10
5302.09
 20
6336.15
  0
VERTEX
  8
1
 10
5295.53
 20
6310
  0
VERTEX
  8
1
 10
5287.76
 20
6284.54
  0
VERTEX
  8
1
 10
5281.09
 20
6266.48
  0
VERTEX
  8
1
 10
5273.43
 20
6249.18
  0
VERTEX
  8
1
 10
5264.67
 20
6232.41
  0
VERTEX
  8
1
 10
5255.14
 20
6216.68
  0
VERTEX
  8
1
 10
5227.54
 20
6177.96
  0
VERTEX
  8
1
 10
5197.07
 20
6140.25
  0
VERTEX
  8
1
 10
5157.93
 20
6096.98
  0
VERTEX
  8
1
 10
5114.64
 20
6053.81
  0
VERTEX
  8
1
 10
5072.27
 20
6011.56
  0
VERTEX
  8
1
 10
5089.48
 20
5954.25
  0
VERTEX
  8
1
 10
5374
 20
5006.45
  0
VERTEX
  8
1
 10
5403.55
 20
4908.03
  0
VERTEX
  8
1
 10
5501.13
 20
4940.24
  0
VERTEX
  8
1
 10
5567.01
 20
4961.99
  0
VERTEX
  8
1
 10
5632.44
 20
4982.39
  0
VERTEX
  8
1
 10
5698.2
 20
5001.68
  0
VERTEX
  8
1
 10
5764.28
 20
5019.87
  0
VERTEX
  8
1
 10
5830.66
 20
5036.94
  0
VERTEX
  8
1
 10
5897.31
 20
5052.9
  0
VERTEX
  8
1
 10
5964.22
 20
5067.75
  0
VERTEX
  8
1
 10
6031.35
 20
5081.46
  0
VERTEX
  8
1
 10
6096.34
 20
5093.59
  0
VERTEX
  8
1
 10
6161.52
 20
5104.58
  0
VERTEX
  8
1
 10
6226.87
 20
5114.44
  0
VERTEX
  8
1
 10
6292.39
 20
5123.17
  0
VERTEX
  8
1
 10
6358.05
 20
5130.75
  0
VERTEX
  8
1
 10
6423.83
 20
5137.2
  0
VERTEX
  8
1
 10
6489.36
 20
5142.48
  0
VERTEX
  8
1
 10
6619.59
 20
5149.78
  0
VERTEX
  8
1
 10
6682.52
 20
5151.77
  0
VERTEX
  8
1
 10
6745.84
 20
5152.69
  0
VERTEX
  8
1
 10
6809.16
 20
5152.52
  0
VERTEX
  8
1
 10
6872.47
 20
5151.26
  0
VERTEX
  8
1
 10
6935.75
 20
5148.91
  0
VERTEX
  8
1
 10
6998.98
 20
5145.48
  0
VERTEX
  8
1
 10
7062.11
 20
5140.96
  0
VERTEX
  8
1
 10
7121.37
 20
5135.66
  0
VERTEX
  8
1
 10
7180.49
 20
5129.29
  0
VERTEX
  8
1
 10
7239.48
 20
5121.84
  0
VERTEX
  8
1
 10
7285.16
 20
5115.23
  0
SEQEND
  0
POLYLINE
  8
11
 66
1
  0
VERTEX
  8
11
 10
7285.16
 20
5115.23
  0
VERTEX
  8
11
 10
7291.1
 20
5154.78
  0
SEQEND
  0
POLYLINE
  8
1
 66
1
  0
VERTEX
  8
1
 10
7285.16
 20
5115.23
  0
VERTEX
  8
1
 10
7298.33
 20
5113.32
  0
VERTEX
  8
1
 10
7357.02
 20
5103.72
  0
VERTEX
  8
1
 10
7415.52
 20
5093.06
  0
VERTEX
  8
1
 10
7473.46
 20
5081.41
  0
VERTEX
  8
1
 10
7585.72
 20
5055.83
  0
VERTEX
  8
1
 10
7637.96
 20
5042.22
  0
VERTEX
  8
1
 10
7690.24
 20
5027.29
  0
VERTEX
  8
1
 10
7742.16
 20
5011.16
  0
VERTEX
  8
1
 10
7793.69
 20
4993.83
  0
VERTEX
  8
1
 10
7844.81
 20
4975.32
  0
VERTEX
  8
1
 10
7895.48
 20
4955.62
  0
VERTEX
  8
1
 10
7945.63
 20
4934.79
  0
VERTEX
  8
1
 10
7990.49
 20
4914.86
  0
VERTEX
  8
1
 10
8034.76
 20
4893.82
  0
VERTEX
  8
1
 10
8078.49
 20
4871.67
  0
VERTEX
  8
1
 10
8121.64
 20
4848.41
  0
VERTEX
  8
1
 10
8164.18
 20
4824.05
  0
VERTEX
  8
1
 10
8206.09
 20
4798.63
  0
VERTEX
  8
1
 10
8247.33
 20
4772.14
  0
VERTEX
  8
1
 10
8287.33
 20
4745
  0
VERTEX
  8
1
 10
8322.89
 20
4718.78
  0
VERTEX
  8
1
 10
8357.71
 20
4691.18
  0
VERTEX
  8
1
 10
8391.53
 20
4662.4
  0
VERTEX
  8
1
 10
8424.3
 20
4632.49
  0
VERTEX
  8
1
 10
8454.47
 20
4602.92
  0
VERTEX
  8
1
 10
8483.5
 20
4572.32
  0
VERTEX
  8
1
 10
8511.41
 20
4540.67
  0
VERTEX
  8
1
 10
8538.02
 20
4508.19
  0
VERTEX
  8
1
 10
8562.2
 20
4476.12
  0
VERTEX
  8
1
 10
8584.82
 20
4443.19
  0
VERTEX
  8
1
 10
8605.97
 20
4409.29
  0
VERTEX
  8
1
 10
8625.6
 20
4374.5
  0
VERTEX
  8
1
 10
8643.38
 20
4339.43
  0
VERTEX
  8
1
 10
8659.56
 20
4303.62
  0
VERTEX
  8
1
 10
8674.12
 20
4267.11
  0
VERTEX
  8
1
 10
8687.78
 20
4227.88
  0
VERTEX
  8
1
 10
8718.64
 20
4139.2
  0
VERTEX
  8
1
 10
8809.09
 20
4164.43
  0
VERTEX
  8
1
 10
8957.66
 20
4205.88
  0
VERTEX
  8
1
 10
9106.5
 20
4246.31
  0
VERTEX
  8
1
 10
9255.29
 20
4285.66
  0
VERTEX
  8
1
 10
9529.02
 20
4355.08
  0
VERTEX
  8
1
 10
9652.18
 20
4384.71
  0
VERTEX
  8
1
 10
9775.99
 20
4413.42
  0
VERTEX
  8
1
 10
10069.8
 20
4478.49
  0
VERTEX
  8
1
 10
10153
 20
4494.22
  0
VERTEX
  8
1
 10
10237.1
 20
4508.39
  0
VERTEX
  8
1
 10
10320.6
 20
4520.77
  0
VERTEX
  8
1
 10
10404.4
 20
4531.47
  0
VERTEX
  8
1
 10
10488.3
 20
4540.49
  0
VERTEX
  8
1
 10
10570
 20
4547.61
  0
VERTEX
  8
1
 10
10572.5
 20
4547.65
  0
SEQEND
  0
POLYLINE
  8
11
 66
1
  0
VERTEX
  8
11
 10
10572.5
 20
4547.65
  0
VERTEX
  8
11
 10
10569.4
 20
4587.53
  0
SEQEND
  0
POLYLINE
  8
1
 66
1
  0
VERTEX
  8
1
 10
10572.5
 20
4547.65
  0
VERTEX
  8
1
 10
10702.1
 20
4549.82
  0
VERTEX
  8
1
 10
10837.3
 20
4550.56
  0
VERTEX
  8
1
 10
10972.5
 20
4549.8
  0
VERTEX
  8
1
 10
11107.6
 20
4547.52
  0
VERTEX
  8
1
 10
11242.7
 20
4543.74
  0
VERTEX
  8
1
 10
11377.7
 20
4538.45
  0
VERTEX
  8
1
 10
11512.7
 20
4531.65
  0
VERTEX
  8
1
 10
11647.7
 20
4523.35
  0
VERTEX
  8
1
 10
11795.6
 20
4512.65
  0
VERTEX
  8
1
 10
11943.4
 20
4500.45
  0
VERTEX
  8
1
 10
12091.1
 20
4486.75
  0
VERTEX
  8
1
 10
12238.7
 20
4471.54
  0
VERTEX
  8
1
 10
12386.1
 20
4454.83
  0
VERTEX
  8
1
 10
12533.3
 20
4436.62
  0
VERTEX
  8
1
 10
12680.3
 20
4416.91
  0
VERTEX
  8
1
 10
12824.2
 20
4396.12
  0
VERTEX
  8
1
 10
12841.9
 20
4494.6
  0
VERTEX
  8
1
 10
12863.4
 20
4614.4
  0
VERTEX
  8
1
 10
12883.8
 20
4734.4
  0
VERTEX
  8
1
 10
12903
 20
4854.59
  0
VERTEX
  8
1
 10
12921.1
 20
4974.97
  0
VERTEX
  8
1
 10
12937.9
 20
5095.51
  0
VERTEX
  8
1
 10
12953.6
 20
5216.21
  0
VERTEX
  8
1
 10
12968.2
 20
5337.06
  0
VERTEX
  8
1
 10
12981.5
 20
5458.05
  0
VERTEX
  8
1
 10
12994.2
 20
5583.47
  0
VERTEX
  8
1
 10
13005.6
 20
5709
  0
VERTEX
  8
1
 10
13015.9
 20
5834.64
  0
VERTEX
  8
1
 10
13025
 20
5960.37
  0
VERTEX
  8
1
 10
13032.9
 20
6086.18
  0
VERTEX
  8
1
 10
13039.6
 20
6212.05
  0
VERTEX
  8
1
 10
13045.2
 20
6337.99
  0
VERTEX
  8
1
 10
13049.6
 20
6463.97
  0
VERTEX
  8
1
 10
13045.2
 20
7000.4
  0
SEQEND
  0
POLYLINE
  8
11
 66
1
  0
VERTEX
  8
11
 10
13045.2
 20
7000.4
  0
VERTEX
  8
11
 10
13005.2
 20
7000.07
  0
SEQEND
  0
POLYLINE
  8
1
 66
1
  0
VERTEX
  8
1
 10
13045.2
 20
7000.4
  0
VERTEX
  8
1
 10
13049.6
 20
7536.82
  0
VERTEX
  8
1
 10
13045.2
 20
7662.81
  0
VERTEX
  8
1
 10
13039.7
 20
7788.74
  0
VERTEX
  8
1
 10
13032.9
 20
7914.62
  0
VERTEX
  8
1
 10
13025
 20
8040.42
  0
VERTEX
  8
1
 10
13015.9
 20
8166.15
  0
VERTEX
  8
1
 10
13005.7
 20
8291.79
  0
VERTEX
  8
1
 10
12994.2
 20
8417.32
  0
VERTEX
  8
1
 10
12981.6
 20
8542.75
  0
VERTEX
  8
1
 10
12968.2
 20
8663.73
  0
VERTEX
  8
1
 10
12953.7
 20
8784.58
  0
VERTEX
  8
1
 10
12938
 20
8905.28
  0
VERTEX
  8
1
 10
12921.1
 20
9025.83
  0
VERTEX
  8
1
 10
12903.1
 20
9146.2
  0
VERTEX
  8
1
 10
12883.9
 20
9266.4
  0
VERTEX
  8
1
 10
12863.5
 20
9386.4
  0
VERTEX
  8
1
 10
12842
 20
9506.2
  0
VERTEX
  8
1
 10
12824.3
 20
9604.68
  0
VERTEX
  8
1
 10
12680.4
 20
9583.9
  0
VERTEX
  8
1
 10
12533.4
 20
9564.19
  0
VERTEX
  8
1
 10
12386.1
 20
9545.99
  0
VERTEX
  8
1
 10
12238.8
 20
9529.28
  0
VERTEX
  8
1
 10
12091.2
 20
9514.08
  0
VERTEX
  8
1
 10
11943.5
 20
9500.38
  0
VERTEX
  8
1
 10
11795.7
 20
9488.18
  0
VERTEX
  8
1
 10
11647.7
 20
9477.49
  0
VERTEX
  8
1
 10
11512.8
 20
9469.19
  0
VERTEX
  8
1
 10
11377.8
 20
9462.4
  0
VERTEX
  8
1
 10
11242.8
 20
9457.12
  0
VERTEX
  8
1
 10
11107.7
 20
9453.34
  0
VERTEX
  8
1
 10
10972.5
 20
9451.07
  0
VERTEX
  8
1
 10
10837.4
 20
9450.31
  0
VERTEX
  8
1
 10
10702.2
 20
9451.06
  0
VERTEX
  8
1
 10
10572.6
 20
9453.23
  0
SEQEND
  0
POLYLINE
  8
11
 66
1
  0
VERTEX
  8
11
 10
10572.6
 20
9453.23
  0
VERTEX
  8
11
 10
10569.5
 20
9413.35
  0
SEQEND
  0
POLYLINE
  8
1
 66
1
  0
VERTEX
  8
1
 10
10572.6
 20
9453.23
  0
VERTEX
  8
1
 10
10570.1
 20
9453.27
  0
VERTEX
  8
1
 10
10488.4
 20
9460.39
  0
VERTEX
  8
1
 10
10404.5
 20
9469.42
  0
VERTEX
  8
1
 10
10320.7
 20
9480.12
  0
VERTEX
  8
1
 10
10237.2
 20
9492.5
  0
VERTEX
  8
1
 10
10153.1
 20
9506.67
  0
VERTEX
  8
1
 10
10069.9
 20
9522.4
  0
VERTEX
  8
1
 10
9776.08
 20
9587.48
  0
VERTEX
  8
1
 10
9652.27
 20
9616.21
  0
VERTEX
  8
1
 10
9529.12
 20
9645.84
  0
VERTEX
  8
1
 10
9255.39
 20
9715.27
  0
VERTEX
  8
1
 10
9106.6
 20
9754.62
  0
VERTEX
  8
1
 10
8957.76
 20
9795.06
  0
VERTEX
  8
1
 10
8809.19
 20
9836.51
  0
VERTEX
  8
1
 10
8718.75
 20
9861.75
  0
VERTEX
  8
1
 10
8687.88
 20
9773.07
  0
VERTEX
  8
1
 10
8674.22
 20
9733.84
  0
VERTEX
  8
1
 10
8659.66
 20
9697.33
  0
VERTEX
  8
1
 10
8643.47
 20
9661.52
  0
VERTEX
  8
1
 10
8625.69
 20
9626.45
  0
VERTEX
  8
1
 10
8606.06
 20
9591.66
  0
VERTEX
  8
1
 10
8584.92
 20
9557.77
  0
VERTEX
  8
1
 10
8562.29
 20
9524.83
  0
VERTEX
  8
1
 10
8538.11
 20
9492.77
  0
VERTEX
  8
1
 10
8511.49
 20
9460.28
  0
VERTEX
  8
1
 10
8483.59
 20
9428.64
  0
VERTEX
  8
1
 10
8454.55
 20
9398.03
  0
VERTEX
  8
1
 10
8424.39
 20
9368.47
  0
VERTEX
  8
1
 10
8391.61
 20
9338.56
  0
VERTEX
  8
1
 10
8357.78
 20
9309.77
  0
VERTEX
  8
1
 10
8322.98
 20
9282.19
  0
VERTEX
  8
1
 10
8287.41
 20
9255.96
  0
VERTEX
  8
1
 10
8247.42
 20
9228.82
  0
VERTEX
  8
1
 10
8206.17
 20
9202.34
  0
VERTEX
  8
1
 10
8164.26
 20
9176.91
  0
VERTEX
  8
1
 10
8121.71
 20
9152.56
  0
VERTEX
  8
1
 10
8078.56
 20
9129.3
  0
VERTEX
  8
1
 10
8034.84
 20
9107.15
  0
VERTEX
  8
1
 10
7990.56
 20
9086.11
  0
VERTEX
  8
1
 10
7945.71
 20
9066.19
  0
VERTEX
  8
1
 10
7895.55
 20
9045.35
  0
VERTEX
  8
1
 10
7844.88
 20
9025.66
  0
VERTEX
  8
1
 10
7793.76
 20
9007.15
  0
VERTEX
  8
1
 10
7742.23
 20
8989.82
  0
VERTEX
  8
1
 10
7690.31
 20
8973.69
  0
VERTEX
  8
1
 10
7638.03
 20
8958.77
  0
VERTEX
  8
1
 10
7585.8
 20
8945.16
  0
VERTEX
  8
1
 10
7473.53
 20
8919.59
  0
VERTEX
  8
1
 10
7415.59
 20
8907.93
  0
VERTEX
  8
1
 10
7357.09
 20
8897.27
  0
VERTEX
  8
1
 10
7298.4
 20
8887.68
  0
VERTEX
  8
1
 10
7285.23
 20
8885.77
  0
SEQEND
  0
POLYLINE
  8
11
 66
1
  0
VERTEX
  8
11
 10
7285.23
 20
8885.77
  0
VERTEX
  8
11
 10
7291.16
 20
8846.21
  0
SEQEND
  0
POLYLINE
  8
1
 66
1
  0
VERTEX
  8
1
 10
7285.23
 20
8885.77
  0
VERTEX
  8
1
 10
7239.55
 20
8879.16
  0
VERTEX
  8
1
 10
7180.56
 20
8871.71
  0
VERTEX
  8
1
 10
7121.44
 20
8865.34
  0
VERTEX
  8
1
 10
7062.18
 20
8860.05
  0
VERTEX
  8
1
 10
6999.05
 20
8855.53
  0
VERTEX
  8
1
 10
6935.82
 20
8852.1
  0
VERTEX
  8
1
 10
6872.54
 20
8849.76
  0
VERTEX
  8
1
 10
6809.23
 20
8848.5
  0
VERTEX
  8
1
 10
6745.9
 20
8848.33
  0
VERTEX
  8
1
 10
6682.59
 20
8849.25
  0
VERTEX
  8
1
 10
6619.66
 20
8851.24
  0
VERTEX
  8
1
 10
6489.43
 20
8858.55
  0
VERTEX
  8
1
 10
6423.89
 20
8863.83
  0
VERTEX
  8
1
 10
6358.11
 20
8870.28
  0
VERTEX
  8
1
 10
6292.46
 20
8877.87
  0
VERTEX
  8
1
 10
6226.94
 20
8886.59
  0
VERTEX
  8
1
 10
6161.58
 20
8896.46
  0
VERTEX
  8
1
 10
6096.41
 20
8907.45
  0
VERTEX
  8
1
 10
6031.42
 20
8919.58
  0
VERTEX
  8
1
 10
5964.29
 20
8933.3
  0
VERTEX
  8
1
 10
5897.38
 20
8948.14
  0
VERTEX
  8
1
 10
5830.73
 20
8964.11
  0
VERTEX
  8
1
 10
5764.35
 20
8981.19
  0
VERTEX
  8
1
 10
5698.28
 20
8999.38
  0
VERTEX
  8
1
 10
5632.51
 20
9018.67
  0
VERTEX
  8
1
 10
5567.08
 20
9039.07
  0
VERTEX
  8
1
 10
5501.2
 20
9060.82
  0
VERTEX
  8
1
 10
5403.62
 20
9093.04
  0
VERTEX
  8
1
 10
5374.07
 20
8994.62
  0
VERTEX
  8
1
 10
5089.51
 20
8046.82
  0
VERTEX
  8
1
 10
5072.31
 20
7989.52
  0
VERTEX
  8
1
 10
5114.67
 20
7947.27
  0
VERTEX
  8
1
 10
5157.96
 20
7904.09
  0
VERTEX
  8
1
 10
5197.1
 20
7860.83
  0
VERTEX
  8
1
 10
5227.57
 20
7823.12
  0
VERTEX
  8
1
 10
5255.17
 20
7784.39
  0
VERTEX
  8
1
 10
5264.7
 20
7768.66
  0
VERTEX
  8
1
 10
5273.45
 20
7751.89
  0
VERTEX
  8
1
 10
5281.12
 20
7734.59
  0
VERTEX
  8
1
 10
5287.78
 20
7716.53
  0
VERTEX
  8
1
 10
5295.55
 20
7691.07
  0
VERTEX
  8
1
 10
5302.11
 20
7664.92
  0
VERTEX
  8
1
 10
5307.22
 20
7639.12
  0
VERTEX
  8
1
 10
5316.45
 20
7569.57
  0
VERTEX
  8
1
 10
5320.2
 20
7529.83
  0
VERTEX
  8
1
 10
5322.81
 20
7490.22
  0
VERTEX
  8
1
 10
5325.37
 20
7381.55
  0
VERTEX
  8
1
 10
5325.16
 20
7315.18
  0
VERTEX
  8
1
 10
5316.6
 20
7003.28
  0
SEQEND
  0
POLYLINE
  8
11
 66
1
  0
VERTEX
  8
11
 10
5316.6
 20
7003.28
  0
VERTEX
  8
11
 10
5356.59
 20
7002.25
  0
SEQEND
  0
POLYLINE
  8
1
 66
1
  0
VERTEX
  8
1
 10
5316.6
 20
7003.28
  0
VERTEX
  8
1
 10
5316.45
 20
7003.27
  0
SEQEND
  0
ENDBLK
  0
BLOCK
  8
0
  2
PCE_004
 70
0
 10
0
 20
0
  0
POLYLINE
  8
8
 66
1
  0
VERTEX
  8
8
 10
8612.16
 20
13235.8
  0
VERTEX
  8
8
 10
8612.16
 20
11277.8
  0
SEQEND
  0
POLYLINE
  8
8
 66
1
  0
VERTEX
  8
8
 10
9369.37
 20
13977.6
  0
VERTEX
  8
8
 10
9369.37
 20
11540
  0
SEQEND
  0
POLYLINE
  8
8
 66
1
  0
VERTEX
  8
8
 10
10126.6
 20
13970.6
  0
VERTEX
  8
8
 10
10126.6
 20
11592.1
  0
SEQEND
  0
POLYLINE
  8
8
 66
1
  0
VERTEX
  8
8
 10
10883.8
 20
13977.6
  0
VERTEX
  8
8
 10
10883.8
 20
11125.3
  0
SEQEND
  0
POLYLINE
  8
8
 66
1
  0
VERTEX
  8
8
 10
11641
 20
13970.6
  0
VERTEX
  8
8
 10
11641
 20
11228.9
  0
SEQEND
  0
POLYLINE
  8
8
 66
1
  0
VERTEX
  8
8
 10
12389.7
 20
13970.6
  0
VERTEX
  8
8
 10
12389
 20
11332.6
  0
SEQEND
  0
POLYLINE
  8
8
 66
1
  0
VERTEX
  8
8
 10
13155.4
 20
13970.6
  0
VERTEX
  8
8
 10
13155.4
 20
11403.1
  0
SEQEND
  0
POLYLINE
  8
8
 66
1
  0
VERTEX
  8
8
 10
13908.7
 20
13972.4
  0
VERTEX
  8
8
 10
13908.7
 20
11390.6
  0
SEQEND
  0
POLYLINE
  8
8
 66
1
  0
VERTEX
  8
8
 10
14669.9
 20
13974.1
  0
VERTEX
  8
8
 10
14669.9
 20
11366.6
  0
SEQEND
  0
POLYLINE
  8
8
 66
1
  0
VERTEX
  8
8
 10
12389
 20
11486.5
  0
VERTEX
  8
8
 10
12706.6
 20
11529.8
  0
VERTEX
  8
8
 10
13050.5
 20
11553.8
  0
VERTEX
  8
8
 10
13254.2
 20
11551.9
  0
VERTEX
  8
8
 10
13458
 20
11549.2
  0
VERTEX
  8
8
 10
13661.7
 20
11545.7
  0
VERTEX
  8
8
 10
13865.5
 20
11541.5
  0
VERTEX
  8
8
 10
14066.6
 20
11536.5
  0
VERTEX
  8
8
 10
14267.7
 20
11530.8
  0
VERTEX
  8
8
 10
14468.8
 20
11524.3
  0
VERTEX
  8
8
 10
14669.9
 20
11517
  0
SEQEND
  0
POLYLINE
  8
8
 66
1
  0
VERTEX
  8
8
 10
12389
 20
11570
  0
VERTEX
  8
8
 10
12695.9
 20
11608.9
  0
VERTEX
  8
8
 10
12783.6
 20
11618.8
  0
VERTEX
  8
8
 10
12849.6
 20
11624.3
  0
VERTEX
  8
8
 10
12915.7
 20
11628.6
  0
VERTEX
  8
8
 10
12981.8
 20
11631.7
  0
VERTEX
  8
8
 10
13048
 20
11633.7
  0
VERTEX
  8
8
 10
13252.7
 20
11631.8
  0
VERTEX
  8
8
 10
13457.3
 20
11629.2
  0
VERTEX
  8
8
 10
13662
 20
11625.7
  0
VERTEX
  8
8
 10
13866.6
 20
11621.5
  0
VERTEX
  8
8
 10
14067.5
 20
11616.5
  0
VERTEX
  8
8
 10
14268.3
 20
11610.8
  0
VERTEX
  8
8
 10
14469.1
 20
11604.3
  0
VERTEX
  8
8
 10
14669.9
 20
11597
  0
SEQEND
  0
POLYLINE
  8
7
 66
1
  0
VERTEX
  8
7
 10
13346.1
 20
12283.5
  0
VERTEX
  8
7
 10
12731.2
 20
12283.5
  0
SEQEND
  0
TEXT
  8
19
  1
GLUV_XXL
 10
11344.9
 20
12054.3
 50
90
 40
1
  0
TEXT
  8
19
  1
GUV13XXL
 10
11444.9
 20
12054.3
 50
90
 40
1
  0
TEXT
  8
19
  1
XXL
 10
11544.9
 20
12054.3
 50
90
 40
1
  0
TEXT
  8
19
  1
S1
 10
11644.9
 20
12054.3
 50
90
 40
1
  0
POLYLINE
  8
1
 66
1
  0
VERTEX
  8
1
 10
10899.3
 20
11133
  0
VERTEX
  8
1
 10
11014.3
 20
11148.6
  0
VERTEX
  8
1
 10
12722.6
 20
11380.3
  0
VERTEX
  8
1
 10
13055.1
 20
11403.8
  0
VERTEX
  8
1
 10
13355.5
 20
11401.2
  0
VERTEX
  8
1
 10
13660
 20
11396.1
  0
VERTEX
  8
1
 10
13974.9
 20
11388.8
  0
VERTEX
  8
1
 10
14430.8
 20
11375.5
  0
VERTEX
  8
1
 10
14869.7
 20
11359.6
  0
VERTEX
  8
1
 10
15033
 20
11352.3
  0
SEQEND
  0
POLYLINE
  8
11
 66
1
  0
VERTEX
  8
11
 10
15033
 20
11352.3
  0
VERTEX
  8
11
 10
15034.8
 20
11392.3
  0
SEQEND
  0
POLYLINE
  8
1
 66
1
  0
VERTEX
  8
1
 10
15033
 20
11352.3
  0
VERTEX
  8
1
 10
15322.5
 20
11339.1
  0
VERTEX
  8
1
 10
15327.1
 20
11338.9
  0
VERTEX
  8
1
 10
15327.1
 20
11439
  0
VERTEX
  8
1
 10
15327.1
 20
13975.6
  0
VERTEX
  8
1
 10
8920.38
 20
13975.5
  0
VERTEX
  8
1
 10
8910.71
 20
13975.5
  0
VERTEX
  8
1
 10
8812.53
 20
13966
  0
VERTEX
  8
1
 10
8820.73
 20
13867.3
  0
VERTEX
  8
1
 10
8825.38
 20
13811.2
  0
VERTEX
  8
1
 10
8826.88
 20
13757.7
  0
VERTEX
  8
1
 10
8825.44
 20
13704.1
  0
VERTEX
  8
1
 10
8821.07
 20
13650.9
  0
VERTEX
  8
1
 10
8814.45
 20
13603.7
  0
VERTEX
  8
1
 10
8805.02
 20
13557.1
  0
VERTEX
  8
1
 10
8792.79
 20
13511.2
  0
VERTEX
  8
1
 10
8778.94
 20
13469.5
  0
VERTEX
  8
1
 10
8767.59
 20
13446.2
  0
VERTEX
  8
1
 10
8753.09
 20
13419.9
  0
VERTEX
  8
1
 10
8737.29
 20
13394.4
  0
VERTEX
  8
1
 10
8720.23
 20
13369.6
  0
VERTEX
  8
1
 10
8701.94
 20
13345.8
  0
VERTEX
  8
1
 10
8682.49
 20
13322.9
  0
VERTEX
  8
1
 10
8661.91
 20
13301
  0
VERTEX
  8
1
 10
8640.15
 20
13280.1
  0
VERTEX
  8
1
 10
8613.93
 20
13257.1
  0
VERTEX
  8
1
 10
8586.59
 20
13235.3
  0
VERTEX
  8
1
 10
8558.32
 20
13214.7
  0
VERTEX
  8
1
 10
8529.15
 20
13195.4
  0
VERTEX
  8
1
 10
8499.16
 20
13177.3
  0
VERTEX
  8
1
 10
8468.39
 20
13160.7
  0
VERTEX
  8
1
 10
8436.91
 20
13145.4
  0
VERTEX
  8
1
 10
8404.19
 20
13131.3
  0
VERTEX
  8
1
 10
8348.66
 20
13109.4
  0
VERTEX
  8
1
 10
8292.36
 20
13088.9
  0
VERTEX
  8
1
 10
8235.51
 20
13070
  0
VERTEX
  8
1
 10
8178.09
 20
13052.6
  0
VERTEX
  8
1
 10
8110.93
 20
13034.1
  0
VERTEX
  8
1
 10
8043.27
 20
13017.2
  0
VERTEX
  8
1
 10
7975.22
 20
13001.9
  0
VERTEX
  8
1
 10
7905.67
 20
12988
  0
VERTEX
  8
1
 10
7893.84
 20
12985.6
  0
VERTEX
  8
1
 10
7798.84
 20
12954.4
  0
VERTEX
  8
1
 10
7830.3
 20
12858.7
  0
VERTEX
  8
1
 10
8341.1
 20
11305.2
  0
VERTEX
  8
1
 10
8343.56
 20
11297.7
  0
VERTEX
  8
1
 10
8382.1
 20
11205.6
  0
VERTEX
  8
1
 10
8474.57
 20
11244.1
  0
VERTEX
  8
1
 10
8851.34
 20
11401.2
  0
VERTEX
  8
1
 10
8936.59
 20
11433.3
  0
VERTEX
  8
1
 10
9022.93
 20
11462.7
  0
VERTEX
  8
1
 10
9110.16
 20
11489.4
  0
VERTEX
  8
1
 10
9198.21
 20
11513.2
  0
VERTEX
  8
1
 10
9286.98
 20
11534.2
  0
VERTEX
  8
1
 10
9376.37
 20
11552.3
  0
VERTEX
  8
1
 10
9466.29
 20
11567.6
  0
VERTEX
  8
1
 10
9555.56
 20
11579.9
  0
VERTEX
  8
1
 10
9644.07
 20
11589
  0
VERTEX
  8
1
 10
9732.84
 20
11595.3
  0
VERTEX
  8
1
 10
9821.76
 20
11598.7
  0
VERTEX
  8
1
 10
9910.74
 20
11599.1
  0
VERTEX
  8
1
 10
9999.7
 20
11596.7
  0
VERTEX
  8
1
 10
10088.5
 20
11591.3
  0
VERTEX
  8
1
 10
10177.5
 20
11583
  0
VERTEX
  8
1
 10
10217.4
 20
11578.3
  0
VERTEX
  8
1
 10
10276.8
 20
11565.3
  0
VERTEX
  8
1
 10
10339
 20
11549.9
  0
VERTEX
  8
1
 10
10400.8
 20
11532.5
  0
VERTEX
  8
1
 10
10461.7
 20
11513.4
  0
VERTEX
  8
1
 10
10503.3
 20
11498.7
  0
VERTEX
  8
1
 10
10544
 20
11482.4
  0
VERTEX
  8
1
 10
10584
 20
11464.4
  0
VERTEX
  8
1
 10
10623.8
 20
11444.5
  0
VERTEX
  8
1
 10
10665.8
 20
11421.8
  0
VERTEX
  8
1
 10
10704.9
 20
11397.4
  0
VERTEX
  8
1
 10
10742.5
 20
11370.6
  0
VERTEX
  8
1
 10
10778.5
 20
11341.5
  0
VERTEX
  8
1
 10
10817
 20
11306.3
  0
VERTEX
  8
1
 10
10853.6
 20
11268.9
  0
VERTEX
  8
1
 10
10885.9
 20
11232.1
  0
VERTEX
  8
1
 10
10899.3
 20
11133
  0
SEQEND
  0
ENDBLK
  0
BLOCK
  8
0
  2
PCE_005
 70
0
 10
0
 20
0
  0
POLYLINE
  8
8
 66
1
  0
VERTEX
  8
8
 10
14767.9
 20
764.705
  0
VERTEX
  8
8
 10
14767.9
 20
2722.73
  0
SEQEND
  0
POLYLINE
  8
8
 66
1
  0
VERTEX
  8
8
 10
14010.7
 20
22.9421
  0
VERTEX
  8
8
 10
14010.7
 20
2460.53
  0
SEQEND
  0
POLYLINE
  8
8
 66
1
  0
VERTEX
  8
8
 10
13253.5
 20
29.9117
  0
VERTEX
  8
8
 10
13253.5
 20
2408.49
  0
SEQEND
  0
POLYLINE
  8
8
 66
1
  0
VERTEX
  8
8
 10
12496.3
 20
22.9414
  0
VERTEX
  8
8
 10
12496.3
 20
2875.3
  0
SEQEND
  0
POLYLINE
  8
8
 66
1
  0
VERTEX
  8
8
 10
11739.1
 20
29.9109
  0
VERTEX
  8
8
 10
11739.1
 20
2771.63
  0
SEQEND
  0
POLYLINE
  8
8
 66
1
  0
VERTEX
  8
8
 10
10990.4
 20
29.9115
  0
VERTEX
  8
8
 10
10991
 20
2667.97
  0
SEQEND
  0
POLYLINE
  8
8
 66
1
  0
VERTEX
  8
8
 10
10224.6
 20
29.9111
  0
VERTEX
  8
8
 10
10224.6
 20
2597.45
  0
SEQEND
  0
POLYLINE
  8
8
 66
1
  0
VERTEX
  8
8
 10
9471.38
 20
28.1682
  0
VERTEX
  8
8
 10
9471.38
 20
2609.93
  0
SEQEND
  0
POLYLINE
  8
8
 66
1
  0
VERTEX
  8
8
 10
8710.21
 20
26.4252
  0
VERTEX
  8
8
 10
8710.21
 20
2633.97
  0
SEQEND
  0
POLYLINE
  8
8
 66
1
  0
VERTEX
  8
8
 10
10991
 20
2514.04
  0
VERTEX
  8
8
 10
10673.4
 20
2470.77
  0
VERTEX
  8
8
 10
10329.6
 20
2446.77
  0
VERTEX
  8
8
 10
10125.8
 20
2448.68
  0
VERTEX
  8
8
 10
9922.07
 20
2451.37
  0
VERTEX
  8
8
 10
9718.32
 20
2454.84
  0
VERTEX
  8
8
 10
9514.59
 20
2459.08
  0
VERTEX
  8
8
 10
9313.46
 20
2464.04
  0
VERTEX
  8
8
 10
9112.36
 20
2469.78
  0
VERTEX
  8
8
 10
8911.27
 20
2476.29
  0
VERTEX
  8
8
 10
8710.21
 20
2483.59
  0
SEQEND
  0
POLYLINE
  8
8
 66
1
  0
VERTEX
  8
8
 10
10991
 20
2430.59
  0
VERTEX
  8
8
 10
10684.2
 20
2391.68
  0
VERTEX
  8
8
 10
10596.5
 20
2381.74
  0
VERTEX
  8
8
 10
10530.5
 20
2376.3
  0
VERTEX
  8
8
 10
10464.4
 20
2372
  0
VERTEX
  8
8
 10
10398.2
 20
2368.84
  0
VERTEX
  8
8
 10
10332.1
 20
2366.81
  0
VERTEX
  8
8
 10
10127.4
 20
2368.72
  0
VERTEX
  8
8
 10
9922.72
 20
2371.4
  0
VERTEX
  8
8
 10
9718.07
 20
2374.86
  0
VERTEX
  8
8
 10
9513.43
 20
2379.1
  0
VERTEX
  8
8
 10
9312.59
 20
2384.03
  0
VERTEX
  8
8
 10
9111.78
 20
2389.75
  0
VERTEX
  8
8
 10
8910.98
 20
2396.24
  0
VERTEX
  8
8
 10
8710.21
 20
2403.51
  0
SEQEND
  0
POLYLINE
  8
7
 66
1
  0
VERTEX
  8
7
 10
10033.9
 20
1717.02
  0
VERTEX
  8
7
 10
10648.8
 20
1717.02
  0
SEQEND
  0
TEXT
  8
19
  1
GLUV_XXL
 10
11599
 20
946.276
 50
90
 40
1
  0
TEXT
  8
19
  1
GUV13XXL
 10
11699
 20
946.276
 50
90
 40
1
  0
TEXT
  8
19
  1
XXL
 10
11799
 20
946.276
 50
90
 40
1
  0
TEXT
  8
19
  1
S1
 10
11899
 20
946.276
 50
90
 40
1
  0
POLYLINE
  8
1
 66
1
  0
VERTEX
  8
1
 10
12480.7
 20
2867.55
  0
VERTEX
  8
1
 10
12365.8
 20
2851.96
  0
VERTEX
  8
1
 10
10657.5
 20
2620.2
  0
VERTEX
  8
1
 10
10325
 20
2596.78
  0
VERTEX
  8
1
 10
10024.6
 20
2599.33
  0
VERTEX
  8
1
 10
9720.11
 20
2604.45
  0
VERTEX
  8
1
 10
9405.14
 20
2611.78
  0
VERTEX
  8
1
 10
8949.25
 20
2625.07
  0
VERTEX
  8
1
 10
8510.32
 20
2640.94
  0
VERTEX
  8
1
 10
8347.1
 20
2648.25
  0
SEQEND
  0
POLYLINE
  8
11
 66
1
  0
VERTEX
  8
11
 10
8347.1
 20
2648.25
  0
VERTEX
  8
11
 10
8345.29
 20
2608.29
  0
SEQEND
  0
POLYLINE
  8
1
 66
1
  0
VERTEX
  8
1
 10
8347.1
 20
2648.25
  0
VERTEX
  8
1
 10
8057.54
 20
2661.41
  0
VERTEX
  8
1
 10
8053
 20
2661.62
  0
VERTEX
  8
1
 10
8053
 20
2561.52
  0
VERTEX
  8
1
 10
8053
 20
25
  0
VERTEX
  8
1
 10
14459.7
 20
25.003
  0
VERTEX
  8
1
 10
14469.4
 20
25.003
  0
VERTEX
  8
1
 10
14567.5
 20
34.5024
  0
VERTEX
  8
1
 10
14559.3
 20
133.269
  0
VERTEX
  8
1
 10
14554.7
 20
189.369
  0
VERTEX
  8
1
 10
14553.2
 20
242.899
  0
VERTEX
  8
1
 10
14554.6
 20
296.43
  0
VERTEX
  8
1
 10
14559
 20
349.662
  0
VERTEX
  8
1
 10
14565.6
 20
396.869
  0
VERTEX
  8
1
 10
14575
 20
443.451
  0
VERTEX
  8
1
 10
14587.3
 20
489.378
  0
VERTEX
  8
1
 10
14601.1
 20
531.041
  0
VERTEX
  8
1
 10
14612.5
 20
554.325
  0
VERTEX
  8
1
 10
14627
 20
580.636
  0
VERTEX
  8
1
 10
14642.8
 20
606.188
  0
VERTEX
  8
1
 10
14659.8
 20
630.914
  0
VERTEX
  8
1
 10
14678.1
 20
654.754
  0
VERTEX
  8
1
 10
14697.6
 20
677.647
  0
VERTEX
  8
1
 10
14718.2
 20
699.535
  0
VERTEX
  8
1
 10
14739.9
 20
720.463
  0
VERTEX
  8
1
 10
14766.1
 20
743.408
  0
VERTEX
  8
1
 10
14793.5
 20
765.253
  0
VERTEX
  8
1
 10
14821.7
 20
785.861
  0
VERTEX
  8
1
 10
14850.9
 20
805.191
  0
VERTEX
  8
1
 10
14880.9
 20
823.206
  0
VERTEX
  8
1
 10
14911.7
 20
839.87
  0
VERTEX
  8
1
 10
14943.2
 20
855.148
  0
VERTEX
  8
1
 10
14975.9
 20
869.269
  0
VERTEX
  8
1
 10
15031.4
 20
891.185
  0
VERTEX
  8
1
 10
15087.7
 20
911.648
  0
VERTEX
  8
1
 10
15144.6
 20
930.572
  0
VERTEX
  8
1
 10
15202
 20
947.964
  0
VERTEX
  8
1
 10
15269.1
 20
966.451
  0
VERTEX
  8
1
 10
15336.8
 20
983.365
  0
VERTEX
  8
1
 10
15404.8
 20
998.672
  0
VERTEX
  8
1
 10
15474.4
 20
1012.6
  0
VERTEX
  8
1
 10
15486.2
 20
1014.97
  0
VERTEX
  8
1
 10
15581.2
 20
1046.2
  0
VERTEX
  8
1
 10
15549.8
 20
1141.89
  0
VERTEX
  8
1
 10
15039
 20
2695.34
  0
VERTEX
  8
1
 10
15036.5
 20
2702.81
  0
VERTEX
  8
1
 10
14998
 20
2794.94
  0
VERTEX
  8
1
 10
14905.5
 20
2756.41
  0
VERTEX
  8
1
 10
14528.7
 20
2599.38
  0
VERTEX
  8
1
 10
14443.5
 20
2567.25
  0
VERTEX
  8
1
 10
14357.1
 20
2537.83
  0
VERTEX
  8
1
 10
14269.9
 20
2511.19
  0
VERTEX
  8
1
 10
14181.9
 20
2487.36
  0
VERTEX
  8
1
 10
14093.1
 20
2466.35
  0
VERTEX
  8
1
 10
14003.7
 20
2448.21
  0
VERTEX
  8
1
 10
13913.8
 20
2432.93
  0
VERTEX
  8
1
 10
13824.5
 20
2420.7
  0
VERTEX
  8
1
 10
13736
 20
2411.51
  0
VERTEX
  8
1
 10
13647.2
 20
2405.23
  0
VERTEX
  8
1
 10
13558.3
 20
2401.86
  0
VERTEX
  8
1
 10
13469.3
 20
2401.41
  0
VERTEX
  8
1
 10
13380.4
 20
2403.87
  0
VERTEX
  8
1
 10
13291.5
 20
2409.25
  0
VERTEX
  8
1
 10
13202.5
 20
2417.58
  0
VERTEX
  8
1
 10
13162.7
 20
2422.3
  0
VERTEX
  8
1
 10
13103.3
 20
2435.21
  0
VERTEX
  8
1
 10
13041
 20
2450.69
  0
VERTEX
  8
1
 10
12979.3
 20
2468.03
  0
VERTEX
  8
1
 10
12918.3
 20
2487.12
  0
VERTEX
  8
1
 10
12876.7
 20
2501.82
  0
VERTEX
  8
1
 10
12836
 20
2518.14
  0
VERTEX
  8
1
 10
12796
 20
2536.15
  0
VERTEX
  8
1
 10
12756.3
 20
2556.09
  0
VERTEX
  8
1
 10
12714.3
 20
2578.77
  0
VERTEX
  8
1
 10
12675.1
 20
2603.17
  0
VERTEX
  8
1
 10
12637.5
 20
2629.95
  0
VERTEX
  8
1
 10
12601.5
 20
2659.09
  0
VERTEX
  8
1
 10
12563
 20
2694.26
  0
VERTEX
  8
1
 10
12526.4
 20
2731.63
  0
VERTEX
  8
1
 10
12494.2
 20
2768.46
  0
VERTEX
  8
1
 10
12480.7
 20
2867.55
  0
SEQEND
  0
ENDBLK
  0
BLOCK
  8
0
  2
PCE_006
 70
0
 10
0
 20
0
  0
POLYLINE
  8
8
 66
1
  0
VERTEX
  8
8
 10
13284.4
 20
4530.5
  0
VERTEX
  8
8
 10
13284.4
 20
2572.47
  0
SEQEND
  0
POLYLINE
  8
8
 66
1
  0
VERTEX
  8
8
 10
14041.6
 20
5272.26
  0
VERTEX
  8
8
 10
14041.6
 20
2834.67
  0
SEQEND
  0
POLYLINE
  8
8
 66
1
  0
VERTEX
  8
8
 10
14798.9
 20
5265.29
  0
VERTEX
  8
8
 10
14798.9
 20
2886.71
  0
SEQEND
  0
POLYLINE
  8
8
 66
1
  0
VERTEX
  8
8
 10
15556.1
 20
5272.26
  0
VERTEX
  8
8
 10
15556.1
 20
2419.9
  0
SEQEND
  0
POLYLINE
  8
8
 66
1
  0
VERTEX
  8
8
 10
16313.3
 20
5265.29
  0
VERTEX
  8
8
 10
16313.3
 20
2523.57
  0
SEQEND
  0
POLYLINE
  8
8
 66
1
  0
VERTEX
  8
8
 10
17061.9
 20
5265.29
  0
VERTEX
  8
8
 10
17061.3
 20
2627.23
  0
SEQEND
  0
POLYLINE
  8
8
 66
1
  0
VERTEX
  8
8
 10
17827.7
 20
5265.29
  0
VERTEX
  8
8
 10
17827.7
 20
2697.75
  0
SEQEND
  0
POLYLINE
  8
8
 66
1
  0
VERTEX
  8
8
 10
18581
 20
5267.03
  0
VERTEX
  8
8
 10
18581
 20
2685.27
  0
SEQEND
  0
POLYLINE
  8
8
 66
1
  0
VERTEX
  8
8
 10
19342.1
 20
5268.77
  0
VERTEX
  8
8
 10
19342.1
 20
2661.23
  0
SEQEND
  0
POLYLINE
  8
8
 66
1
  0
VERTEX
  8
8
 10
17061.3
 20
2781.16
  0
VERTEX
  8
8
 10
17378.9
 20
2824.43
  0
VERTEX
  8
8
 10
17722.8
 20
2848.43
  0
VERTEX
  8
8
 10
17926.5
 20
2846.52
  0
VERTEX
  8
8
 10
18130.3
 20
2843.83
  0
VERTEX
  8
8
 10
18334
 20
2840.36
  0
VERTEX
  8
8
 10
18537.7
 20
2836.12
  0
VERTEX
  8
8
 10
18738.9
 20
2831.16
  0
VERTEX
  8
8
 10
18940
 20
2825.42
  0
VERTEX
  8
8
 10
19141.1
 20
2818.91
  0
VERTEX
  8
8
 10
19342.1
 20
2811.61
  0
SEQEND
  0
POLYLINE
  8
8
 66
1
  0
VERTEX
  8
8
 10
17061.3
 20
2864.61
  0
VERTEX
  8
8
 10
17368.2
 20
2903.52
  0
VERTEX
  8
8
 10
17455.9
 20
2913.46
  0
VERTEX
  8
8
 10
17521.9
 20
2918.9
  0
VERTEX
  8
8
 10
17587.9
 20
2923.2
  0
VERTEX
  8
8
 10
17654.1
 20
2926.36
  0
VERTEX
  8
8
 10
17720.3
 20
2928.39
  0
VERTEX
  8
8
 10
17925
 20
2926.48
  0
VERTEX
  8
8
 10
18129.6
 20
2923.8
  0
VERTEX
  8
8
 10
18334.3
 20
2920.34
  0
VERTEX
  8
8
 10
18538.9
 20
2916.1
  0
VERTEX
  8
8
 10
18739.7
 20
2911.17
  0
VERTEX
  8
8
 10
18940.6
 20
2905.45
  0
VERTEX
  8
8
 10
19141.4
 20
2898.96
  0
VERTEX
  8
8
 10
19342.1
 20
2891.69
  0
SEQEND
  0
POLYLINE
  8
7
 66
1
  0
VERTEX
  8
7
 10
18018.4
 20
3578.18
  0
VERTEX
  8
7
 10
17403.5
 20
3578.18
  0
SEQEND
  0
TEXT
  8
19
  1
GLUV_XXL
 10
16017.2
 20
3348.92
 50
90
 40
1
  0
TEXT
  8
19
  1
GUV13XXL
 10
16117.2
 20
3348.92
 50
90
 40
1
  0
TEXT
  8
19
  1
XXL
 10
16217.2
 20
3348.92
 50
90
 40
1
  0
TEXT
  8
19
  1
S1
 10
16317.2
 20
3348.92
 50
90
 40
1
  0
POLYLINE
  8
1
 66
1
  0
VERTEX
  8
1
 10
15571.6
 20
2427.65
  0
VERTEX
  8
1
 10
15686.5
 20
2443.24
  0
VERTEX
  8
1
 10
17394.8
 20
2675
  0
VERTEX
  8
1
 10
17727.4
 20
2698.42
  0
VERTEX
  8
1
 10
18027.8
 20
2695.87
  0
VERTEX
  8
1
 10
18332.2
 20
2690.75
  0
VERTEX
  8
1
 10
18647.2
 20
2683.43
  0
VERTEX
  8
1
 10
19103.1
 20
2670.13
  0
VERTEX
  8
1
 10
19542
 20
2654.26
  0
VERTEX
  8
1
 10
19705.2
 20
2646.95
  0
SEQEND
  0
POLYLINE
  8
11
 66
1
  0
VERTEX
  8
11
 10
19705.2
 20
2646.95
  0
VERTEX
  8
11
 10
19707.1
 20
2686.91
  0
SEQEND
  0
POLYLINE
  8
1
 66
1
  0
VERTEX
  8
1
 10
19705.2
 20
2646.95
  0
VERTEX
  8
1
 10
19994.8
 20
2633.79
  0
VERTEX
  8
1
 10
19999.3
 20
2633.58
  0
VERTEX
  8
1
 10
19999.3
 20
2733.68
  0
VERTEX
  8
1
 10
19999.3
 20
5270.2
  0
VERTEX
  8
1
 10
13592.7
 20
5270.2
  0
VERTEX
  8
1
 10
13583
 20
5270.2
  0
VERTEX
  8
1
 10
13484.8
 20
5260.7
  0
VERTEX
  8
1
 10
13493
 20
5161.93
  0
VERTEX
  8
1
 10
13497.7
 20
5105.83
  0
VERTEX
  8
1
 10
13499.2
 20
5052.3
  0
VERTEX
  8
1
 10
13497.7
 20
4998.77
  0
VERTEX
  8
1
 10
13493.4
 20
4945.54
  0
VERTEX
  8
1
 10
13486.7
 20
4898.33
  0
VERTEX
  8
1
 10
13477.3
 20
4851.75
  0
VERTEX
  8
1
 10
13465.1
 20
4805.82
  0
VERTEX
  8
1
 10
13451.2
 20
4764.16
  0
VERTEX
  8
1
 10
13439.9
 20
4740.88
  0
VERTEX
  8
1
 10
13425.4
 20
4714.56
  0
VERTEX
  8
1
 10
13409.6
 20
4689.01
  0
VERTEX
  8
1
 10
13392.5
 20
4664.29
  0
VERTEX
  8
1
 10
13374.2
 20
4640.45
  0
VERTEX
  8
1
 10
13354.8
 20
4617.55
  0
VERTEX
  8
1
 10
13334.2
 20
4595.66
  0
VERTEX
  8
1
 10
13312.4
 20
4574.74
  0
VERTEX
  8
1
 10
13286.2
 20
4551.79
  0
VERTEX
  8
1
 10
13258.9
 20
4529.95
  0
VERTEX
  8
1
 10
13230.6
 20
4509.34
  0
VERTEX
  8
1
 10
13201.4
 20
4490.01
  0
VERTEX
  8
1
 10
13171.4
 20
4471.99
  0
VERTEX
  8
1
 10
13140.7
 20
4455.33
  0
VERTEX
  8
1
 10
13109.2
 20
4440.05
  0
VERTEX
  8
1
 10
13076.5
 20
4425.93
  0
VERTEX
  8
1
 10
13020.9
 20
4404.02
  0
VERTEX
  8
1
 10
12964.6
 20
4383.55
  0
VERTEX
  8
1
 10
12907.8
 20
4364.63
  0
VERTEX
  8
1
 10
12850.4
 20
4347.24
  0
VERTEX
  8
1
 10
12783.2
 20
4328.75
  0
VERTEX
  8
1
 10
12715.5
 20
4311.84
  0
VERTEX
  8
1
 10
12647.5
 20
4296.53
  0
VERTEX
  8
1
 10
12577.9
 20
4282.6
  0
VERTEX
  8
1
 10
12566.1
 20
4280.24
  0
VERTEX
  8
1
 10
12471.1
 20
4249
  0
VERTEX
  8
1
 10
12502.6
 20
4153.31
  0
VERTEX
  8
1
 10
13013.4
 20
2599.86
  0
VERTEX
  8
1
 10
13015.8
 20
2592.39
  0
VERTEX
  8
1
 10
13054.4
 20
2500.26
  0
VERTEX
  8
1
 10
13146.8
 20
2538.79
  0
VERTEX
  8
1
 10
13523.6
 20
2695.82
  0
VERTEX
  8
1
 10
13608.9
 20
2727.95
  0
VERTEX
  8
1
 10
13695.2
 20
2757.37
  0
VERTEX
  8
1
 10
13782.4
 20
2784.01
  0
VERTEX
  8
1
 10
13870.5
 20
2807.84
  0
VERTEX
  8
1
 10
13959.3
 20
2828.85
  0
VERTEX
  8
1
 10
14048.6
 20
2846.99
  0
VERTEX
  8
1
 10
14138.6
 20
2862.27
  0
VERTEX
  8
1
 10
14227.8
 20
2874.5
  0
VERTEX
  8
1
 10
14316.4
 20
2883.69
  0
VERTEX
  8
1
 10
14405.1
 20
2889.97
  0
VERTEX
  8
1
 10
14494
 20
2893.34
  0
VERTEX
  8
1
 10
14583
 20
2893.79
  0
VERTEX
  8
1
 10
14672
 20
2891.33
  0
VERTEX
  8
1
 10
14760.8
 20
2885.95
  0
VERTEX
  8
1
 10
14849.8
 20
2877.62
  0
VERTEX
  8
1
 10
14889.6
 20
2872.9
  0
VERTEX
  8
1
 10
14949.1
 20
2859.99
  0
VERTEX
  8
1
 10
15011.3
 20
2844.51
  0
VERTEX
  8
1
 10
15073.1
 20
2827.17
  0
VERTEX
  8
1
 10
15134
 20
2808.08
  0
VERTEX
  8
1
 10
15175.6
 20
2793.38
  0
VERTEX
  8
1
 10
15216.3
 20
2777.06
  0
VERTEX
  8
1
 10
15256.3
 20
2759.05
  0
VERTEX
  8
1
 10
15296
 20
2739.12
  0
VERTEX
  8
1
 10
15338.1
 20
2716.43
  0
VERTEX
  8
1
 10
15377.2
 20
2692.03
  0
VERTEX
  8
1
 10
15414.8
 20
2665.25
  0
VERTEX
  8
1
 10
15450.8
 20
2636.11
  0
VERTEX
  8
1
 10
15489.3
 20
2600.94
  0
VERTEX
  8
1
 10
15525.9
 20
2563.57
  0
VERTEX
  8
1
 10
15558.2
 20
2526.74
  0
VERTEX
  8
1
 10
15571.6
 20
2427.65
  0
SEQEND
  0
ENDBLK
  0
BLOCK
  8
0
  2
PCE_007
 70
0
 10
0
 20
0
  0
POLYLINE
  8
8
 66
1
  0
VERTEX
  8
8
 10
17511.3
 20
10729.7
  0
VERTEX
  8
8
 10
17818.2
 20
10690.8
  0
VERTEX
  8
8
 10
17905.9
 20
10680.9
  0
VERTEX
  8
8
 10
17971.9
 20
10675.4
  0
VERTEX
  8
8
 10
18037.9
 20
10671.1
  0
VERTEX
  8
8
 10
18104.1
 20
10668
  0
VERTEX
  8
8
 10
18170.3
 20
10665.9
  0
VERTEX
  8
8
 10
18375
 20
10667.8
  0
VERTEX
  8
8
 10
18579.6
 20
10670.5
  0
VERTEX
  8
8
 10
18784.3
 20
10674
  0
VERTEX
  8
8
 10
18988.9
 20
10678.2
  0
VERTEX
  8
8
 10
19189.7
 20
10683.2
  0
VERTEX
  8
8
 10
19390.6
 20
10688.9
  0
VERTEX
  8
8
 10
19591.4
 20
10695.4
  0
VERTEX
  8
8
 10
19792.1
 20
10702.6
  0
SEQEND
  0
POLYLINE
  8
8
 66
1
  0
VERTEX
  8
8
 10
17511.3
 20
10813.2
  0
VERTEX
  8
8
 10
17828.9
 20
10769.9
  0
VERTEX
  8
8
 10
18172.8
 20
10745.9
  0
VERTEX
  8
8
 10
18376.5
 20
10747.8
  0
VERTEX
  8
8
 10
18580.3
 20
10750.5
  0
VERTEX
  8
8
 10
18784
 20
10754
  0
VERTEX
  8
8
 10
18987.7
 20
10758.2
  0
VERTEX
  8
8
 10
19188.9
 20
10763.2
  0
VERTEX
  8
8
 10
19390
 20
10768.9
  0
VERTEX
  8
8
 10
19591.1
 20
10775.4
  0
VERTEX
  8
8
 10
19792.1
 20
10782.7
  0
SEQEND
  0
POLYLINE
  8
8
 66
1
  0
VERTEX
  8
8
 10
17511.5
 20
8724.12
  0
VERTEX
  8
8
 10
15248.9
 20
8724.12
  0
SEQEND
  0
POLYLINE
  8
8
 66
1
  0
VERTEX
  8
8
 10
17511.5
 20
8804.12
  0
VERTEX
  8
8
 10
15248.9
 20
8804.12
  0
SEQEND
  0
POLYLINE
  8
8
 66
1
  0
VERTEX
  8
8
 10
19792.1
 20
8325.55
  0
VERTEX
  8
8
 10
19792.1
 20
10933.1
  0
SEQEND
  0
POLYLINE
  8
8
 66
1
  0
VERTEX
  8
8
 10
19031
 20
8327.29
  0
VERTEX
  8
8
 10
19031
 20
10909.1
  0
SEQEND
  0
POLYLINE
  8
8
 66
1
  0
VERTEX
  8
8
 10
18277.7
 20
8329.03
  0
VERTEX
  8
8
 10
18277.7
 20
10896.6
  0
SEQEND
  0
POLYLINE
  8
8
 66
1
  0
VERTEX
  8
8
 10
17511.9
 20
8329.03
  0
VERTEX
  8
8
 10
17511.3
 20
10967.1
  0
SEQEND
  0
POLYLINE
  8
8
 66
1
  0
VERTEX
  8
8
 10
16763.3
 20
8329.03
  0
VERTEX
  8
8
 10
16763.3
 20
11070.8
  0
SEQEND
  0
POLYLINE
  8
8
 66
1
  0
VERTEX
  8
8
 10
16006.1
 20
8322.06
  0
VERTEX
  8
8
 10
16006.1
 20
11174.4
  0
SEQEND
  0
POLYLINE
  8
8
 66
1
  0
VERTEX
  8
8
 10
15248.9
 20
8329.03
  0
VERTEX
  8
8
 10
15248.9
 20
10707.6
  0
SEQEND
  0
POLYLINE
  8
8
 66
1
  0
VERTEX
  8
8
 10
14491.6
 20
8322.06
  0
VERTEX
  8
8
 10
14491.6
 20
10759.7
  0
SEQEND
  0
POLYLINE
  8
8
 66
1
  0
VERTEX
  8
8
 10
13734.4
 20
9063.83
  0
VERTEX
  8
8
 10
13734.4
 20
11021.9
  0
SEQEND
  0
POLYLINE
  8
8
 66
1
  0
VERTEX
  8
8
 10
15687.6
 20
9154.48
  0
VERTEX
  8
8
 10
15627.6
 20
9154.48
  0
VERTEX
  8
8
 10
15567.6
 20
9154.48
  0
VERTEX
  8
8
 10
15567.6
 20
9554.48
  0
VERTEX
  8
8
 10
15567.6
 20
9954.48
  0
VERTEX
  8
8
 10
15627.6
 20
9954.48
  0
VERTEX
  8
8
 10
15687.6
 20
9954.48
  0
VERTEX
  8
8
 10
15687.6
 20
9554.48
  0
VERTEX
  8
8
 10
15687.6
 20
9154.48
  0
VERTEX
  8
8
 10
15627.6
 20
9554.48
  0
VERTEX
  8
8
 10
15567.6
 20
9954.48
  0
SEQEND
  0
POLYLINE
  8
8
 66
1
  0
VERTEX
  8
8
 10
15687.6
 20
9954.48
  0
VERTEX
  8
8
 10
15627.6
 20
9554.48
  0
VERTEX
  8
8
 10
15567.6
 20
9154.48
  0
SEQEND
  0
POINT
  8
15
 10
15627.5
 20
9554.12
  0
POINT
  8
15
 10
15567.6
 20
9154.48
  0
POINT
  8
15
 10
15687.6
 20
9154.48
  0
POINT
  8
15
 10
15567.6
 20
9954.48
  0
POINT
  8
15
 10
15687.6
 20
9954.48
  0
POLYLINE
  8
7
 66
1
  0
VERTEX
  8
7
 10
18468.4
 20
10016.1
  0
VERTEX
  8
7
 10
17853.5
 20
10016.1
  0
SEQEND
  0
TEXT
  8
19
  1
GLUV_XXL
 10
16467.2
 20
9245.4
 50
90
 40
1
  0
TEXT
  8
19
  1
GUV13XXL
 10
16567.2
 20
9245.4
 50
90
 40
1
  0
TEXT
  8
19
  1
XXL
 10
16667.2
 20
9245.4
 50
90
 40
1
  0
TEXT
  8
19
  1
S1
 10
16767.2
 20
9245.4
 50
90
 40
1
  0
POLYLINE
  8
1
 66
1
  0
VERTEX
  8
1
 10
16021.6
 20
11166.7
  0
VERTEX
  8
1
 10
16136.5
 20
11151.1
  0
VERTEX
  8
1
 10
17844.8
 20
10919.3
  0
VERTEX
  8
1
 10
18177.4
 20
10895.9
  0
VERTEX
  8
1
 10
18477.8
 20
10898.5
  0
VERTEX
  8
1
 10
18782.2
 20
10903.6
  0
VERTEX
  8
1
 10
19097.2
 20
10910.9
  0
VERTEX
  8
1
 10
19553.1
 20
10924.2
  0
VERTEX
  8
1
 10
19992
 20
10940.1
  0
VERTEX
  8
1
 10
20155.2
 20
10947.4
  0
SEQEND
  0
POLYLINE
  8
11
 66
1
  0
VERTEX
  8
11
 10
20155.2
 20
10947.4
  0
VERTEX
  8
11
 10
20157.1
 20
10907.4
  0
SEQEND
  0
POLYLINE
  8
1
 66
1
  0
VERTEX
  8
1
 10
20155.2
 20
10947.4
  0
VERTEX
  8
1
 10
20444.8
 20
10960.5
  0
VERTEX
  8
1
 10
20449.3
 20
10960.7
  0
VERTEX
  8
1
 10
20449.3
 20
10860.6
  0
VERTEX
  8
1
 10
20449.3
 20
8324.12
  0
VERTEX
  8
1
 10
14042.7
 20
8324.12
  0
VERTEX
  8
1
 10
14033
 20
8324.12
  0
VERTEX
  8
1
 10
13934.8
 20
8333.62
  0
VERTEX
  8
1
 10
13943
 20
8432.39
  0
VERTEX
  8
1
 10
13947.7
 20
8488.49
  0
VERTEX
  8
1
 10
13949.2
 20
8542.02
  0
VERTEX
  8
1
 10
13947.7
 20
8595.55
  0
VERTEX
  8
1
 10
13943.4
 20
8648.78
  0
VERTEX
  8
1
 10
13936.7
 20
8695.99
  0
VERTEX
  8
1
 10
13927.3
 20
8742.57
  0
VERTEX
  8
1
 10
13915.1
 20
8788.5
  0
VERTEX
  8
1
 10
13901.2
 20
8830.16
  0
VERTEX
  8
1
 10
13889.9
 20
8853.45
  0
VERTEX
  8
1
 10
13875.4
 20
8879.76
  0
VERTEX
  8
1
 10
13859.6
 20
8905.31
  0
VERTEX
  8
1
 10
13842.5
 20
8930.04
  0
VERTEX
  8
1
 10
13824.2
 20
8953.88
  0
VERTEX
  8
1
 10
13804.8
 20
8976.77
  0
VERTEX
  8
1
 10
13784.2
 20
8998.66
  0
VERTEX
  8
1
 10
13762.4
 20
9019.59
  0
VERTEX
  8
1
 10
13736.2
 20
9042.53
  0
VERTEX
  8
1
 10
13708.9
 20
9064.37
  0
VERTEX
  8
1
 10
13680.6
 20
9084.98
  0
VERTEX
  8
1
 10
13651.4
 20
9104.31
  0
VERTEX
  8
1
 10
13621.4
 20
9122.33
  0
VERTEX
  8
1
 10
13590.7
 20
9138.99
  0
VERTEX
  8
1
 10
13559.2
 20
9154.27
  0
VERTEX
  8
1
 10
13526.5
 20
9168.39
  0
VERTEX
  8
1
 10
13470.9
 20
9190.31
  0
VERTEX
  8
1
 10
13414.6
 20
9210.77
  0
VERTEX
  8
1
 10
13357.8
 20
9229.69
  0
VERTEX
  8
1
 10
13300.4
 20
9247.09
  0
VERTEX
  8
1
 10
13233.2
 20
9265.57
  0
VERTEX
  8
1
 10
13165.5
 20
9282.49
  0
VERTEX
  8
1
 10
13097.5
 20
9297.79
  0
VERTEX
  8
1
 10
13027.9
 20
9311.72
  0
VERTEX
  8
1
 10
13016.1
 20
9314.09
  0
VERTEX
  8
1
 10
12921.1
 20
9345.32
  0
VERTEX
  8
1
 10
12952.6
 20
9441.01
  0
VERTEX
  8
1
 10
13463.4
 20
10994.5
  0
VERTEX
  8
1
 10
13465.8
 20
11001.9
  0
VERTEX
  8
1
 10
13504.4
 20
11094.1
  0
VERTEX
  8
1
 10
13596.8
 20
11055.5
  0
VERTEX
  8
1
 10
13973.6
 20
10898.5
  0
VERTEX
  8
1
 10
14058.9
 20
10866.4
  0
VERTEX
  8
1
 10
14145.2
 20
10837
  0
VERTEX
  8
1
 10
14232.4
 20
10810.3
  0
VERTEX
  8
1
 10
14320.5
 20
10786.5
  0
VERTEX
  8
1
 10
14409.3
 20
10765.5
  0
VERTEX
  8
1
 10
14498.6
 20
10747.3
  0
VERTEX
  8
1
 10
14588.6
 20
10732.1
  0
VERTEX
  8
1
 10
14677.8
 20
10719.8
  0
VERTEX
  8
1
 10
14766.4
 20
10710.6
  0
VERTEX
  8
1
 10
14855.1
 20
10704.3
  0
VERTEX
  8
1
 10
14944
 20
10701
  0
VERTEX
  8
1
 10
15033
 20
10700.5
  0
VERTEX
  8
1
 10
15122
 20
10703
  0
VERTEX
  8
1
 10
15210.8
 20
10708.4
  0
VERTEX
  8
1
 10
15299.8
 20
10716.7
  0
VERTEX
  8
1
 10
15339.6
 20
10721.4
  0
VERTEX
  8
1
 10
15399.1
 20
10734.3
  0
VERTEX
  8
1
 10
15461.3
 20
10749.8
  0
VERTEX
  8
1
 10
15523.1
 20
10767.2
  0
VERTEX
  8
1
 10
15584
 20
10786.2
  0
VERTEX
  8
1
 10
15625.6
 20
10800.9
  0
VERTEX
  8
1
 10
15666.3
 20
10817.3
  0
VERTEX
  8
1
 10
15706.3
 20
10835.3
  0
VERTEX
  8
1
 10
15746
 20
10855.2
  0
VERTEX
  8
1
 10
15788.1
 20
10877.9
  0
VERTEX
  8
1
 10
15827.2
 20
10902.3
  0
VERTEX
  8
1
 10
15864.8
 20
10929.1
  0
VERTEX
  8
1
 10
15900.8
 20
10958.2
  0
VERTEX
  8
1
 10
15939.3
 20
10993.4
  0
VERTEX
  8
1
 10
15975.9
 20
11030.7
  0
VERTEX
  8
1
 10
16008.2
 20
11067.6
  0
VERTEX
  8
1
 10
16021.6
 20
11166.7
  0
SEQEND
  0
ENDBLK
  0
BLOCK
  8
0
  2
PCE_008
 70
0
 10
0
 20
0
  0
POLYLINE
  8
8
 66
1
  0
VERTEX
  8
8
 10
16038.3
 20
5756.61
  0
VERTEX
  8
8
 10
15731.5
 20
5795.52
  0
VERTEX
  8
8
 10
15643.8
 20
5805.46
  0
VERTEX
  8
8
 10
15577.8
 20
5810.9
  0
VERTEX
  8
8
 10
15511.7
 20
5815.2
  0
VERTEX
  8
8
 10
15445.5
 20
5818.36
  0
VERTEX
  8
8
 10
15379.3
 20
5820.39
  0
VERTEX
  8
8
 10
15174.7
 20
5818.48
  0
VERTEX
  8
8
 10
14970
 20
5815.8
  0
VERTEX
  8
8
 10
14765.3
 20
5812.34
  0
VERTEX
  8
8
 10
14560.7
 20
5808.1
  0
VERTEX
  8
8
 10
14359.9
 20
5803.17
  0
VERTEX
  8
8
 10
14159
 20
5797.45
  0
VERTEX
  8
8
 10
13958.3
 20
5790.96
  0
VERTEX
  8
8
 10
13757.5
 20
5783.69
  0
SEQEND
  0
POLYLINE
  8
8
 66
1
  0
VERTEX
  8
8
 10
16038.3
 20
5673.16
  0
VERTEX
  8
8
 10
15720.7
 20
5716.43
  0
VERTEX
  8
8
 10
15376.9
 20
5740.43
  0
VERTEX
  8
8
 10
15173.1
 20
5738.52
  0
VERTEX
  8
8
 10
14969.3
 20
5735.83
  0
VERTEX
  8
8
 10
14765.6
 20
5732.36
  0
VERTEX
  8
8
 10
14561.9
 20
5728.12
  0
VERTEX
  8
8
 10
14360.7
 20
5723.16
  0
VERTEX
  8
8
 10
14159.6
 20
5717.42
  0
VERTEX
  8
8
 10
13958.5
 20
5710.91
  0
VERTEX
  8
8
 10
13757.5
 20
5703.61
  0
SEQEND
  0
POLYLINE
  8
8
 66
1
  0
VERTEX
  8
8
 10
16038.2
 20
7762.2
  0
VERTEX
  8
8
 10
18300.8
 20
7762.2
  0
SEQEND
  0
POLYLINE
  8
8
 66
1
  0
VERTEX
  8
8
 10
16038.2
 20
7682.2
  0
VERTEX
  8
8
 10
18300.8
 20
7682.2
  0
SEQEND
  0
POLYLINE
  8
8
 66
1
  0
VERTEX
  8
8
 10
13757.5
 20
8160.77
  0
VERTEX
  8
8
 10
13757.5
 20
5553.23
  0
SEQEND
  0
POLYLINE
  8
8
 66
1
  0
VERTEX
  8
8
 10
14518.7
 20
8159.03
  0
VERTEX
  8
8
 10
14518.7
 20
5577.27
  0
SEQEND
  0
POLYLINE
  8
8
 66
1
  0
VERTEX
  8
8
 10
15271.9
 20
8157.29
  0
VERTEX
  8
8
 10
15271.9
 20
5589.75
  0
SEQEND
  0
POLYLINE
  8
8
 66
1
  0
VERTEX
  8
8
 10
16037.7
 20
8157.29
  0
VERTEX
  8
8
 10
16038.3
 20
5519.23
  0
SEQEND
  0
POLYLINE
  8
8
 66
1
  0
VERTEX
  8
8
 10
16786.3
 20
8157.29
  0
VERTEX
  8
8
 10
16786.3
 20
5415.57
  0
SEQEND
  0
POLYLINE
  8
8
 66
1
  0
VERTEX
  8
8
 10
17543.5
 20
8164.26
  0
VERTEX
  8
8
 10
17543.5
 20
5311.9
  0
SEQEND
  0
POLYLINE
  8
8
 66
1
  0
VERTEX
  8
8
 10
18300.8
 20
8157.29
  0
VERTEX
  8
8
 10
18300.8
 20
5778.71
  0
SEQEND
  0
POLYLINE
  8
8
 66
1
  0
VERTEX
  8
8
 10
19058
 20
8164.26
  0
VERTEX
  8
8
 10
19058
 20
5726.67
  0
SEQEND
  0
POLYLINE
  8
8
 66
1
  0
VERTEX
  8
8
 10
19815.2
 20
7422.5
  0
VERTEX
  8
8
 10
19815.2
 20
5464.47
  0
SEQEND
  0
POLYLINE
  8
8
 66
1
  0
VERTEX
  8
8
 10
17862
 20
7331.85
  0
VERTEX
  8
8
 10
17922
 20
7331.85
  0
VERTEX
  8
8
 10
17982
 20
7331.85
  0
VERTEX
  8
8
 10
17982
 20
6931.85
  0
VERTEX
  8
8
 10
17982
 20
6531.85
  0
VERTEX
  8
8
 10
17922
 20
6531.85
  0
VERTEX
  8
8
 10
17862
 20
6531.85
  0
VERTEX
  8
8
 10
17862
 20
6931.85
  0
VERTEX
  8
8
 10
17862
 20
7331.85
  0
VERTEX
  8
8
 10
17922
 20
6931.85
  0
VERTEX
  8
8
 10
17982
 20
6531.85
  0
SEQEND
  0
POLYLINE
  8
8
 66
1
  0
VERTEX
  8
8
 10
17862
 20
6531.85
  0
VERTEX
  8
8
 10
17922
 20
6931.85
  0
VERTEX
  8
8
 10
17982
 20
7331.85
  0
SEQEND
  0
POINT
  8
15
 10
17922.2
 20
6932.2
  0
POINT
  8
15
 10
17982
 20
7331.85
  0
POINT
  8
15
 10
17862
 20
7331.85
  0
POINT
  8
15
 10
17982
 20
6531.85
  0
POINT
  8
15
 10
17862
 20
6531.85
  0
POLYLINE
  8
7
 66
1
  0
VERTEX
  8
7
 10
15081.2
 20
6470.18
  0
VERTEX
  8
7
 10
15696.1
 20
6470.18
  0
SEQEND
  0
TEXT
  8
19
  1
GLUV_XXL
 10
16646.3
 20
6240.92
 50
90
 40
1
  0
TEXT
  8
19
  1
GUV13XXL
 10
16746.3
 20
6240.92
 50
90
 40
1
  0
TEXT
  8
19
  1
XXL
 10
16846.3
 20
6240.92
 50
90
 40
1
  0
TEXT
  8
19
  1
S1
 10
16946.3
 20
6240.92
 50
90
 40
1
  0
POLYLINE
  8
1
 66
1
  0
VERTEX
  8
1
 10
17528
 20
5319.65
  0
VERTEX
  8
1
 10
17413.1
 20
5335.24
  0
VERTEX
  8
1
 10
15704.8
 20
5567
  0
VERTEX
  8
1
 10
15372.2
 20
5590.42
  0
VERTEX
  8
1
 10
15071.9
 20
5587.87
  0
VERTEX
  8
1
 10
14767.4
 20
5582.75
  0
VERTEX
  8
1
 10
14452.4
 20
5575.43
  0
VERTEX
  8
1
 10
13996.5
 20
5562.13
  0
VERTEX
  8
1
 10
13557.6
 20
5546.26
  0
VERTEX
  8
1
 10
13394.4
 20
5538.95
  0
SEQEND
  0
POLYLINE
  8
11
 66
1
  0
VERTEX
  8
11
 10
13394.4
 20
5538.95
  0
VERTEX
  8
11
 10
13392.6
 20
5578.91
  0
SEQEND
  0
POLYLINE
  8
1
 66
1
  0
VERTEX
  8
1
 10
13394.4
 20
5538.95
  0
VERTEX
  8
1
 10
13104.8
 20
5525.79
  0
VERTEX
  8
1
 10
13100.3
 20
5525.58
  0
VERTEX
  8
1
 10
13100.3
 20
5625.68
  0
VERTEX
  8
1
 10
13100.3
 20
8162.2
  0
VERTEX
  8
1
 10
19507
 20
8162.2
  0
VERTEX
  8
1
 10
19516.6
 20
8162.2
  0
VERTEX
  8
1
 10
19614.8
 20
8152.7
  0
VERTEX
  8
1
 10
19606.6
 20
8053.93
  0
VERTEX
  8
1
 10
19602
 20
7997.83
  0
VERTEX
  8
1
 10
19600.5
 20
7944.3
  0
VERTEX
  8
1
 10
19601.9
 20
7890.77
  0
VERTEX
  8
1
 10
19606.3
 20
7837.54
  0
VERTEX
  8
1
 10
19612.9
 20
7790.33
  0
VERTEX
  8
1
 10
19622.3
 20
7743.75
  0
VERTEX
  8
1
 10
19634.6
 20
7697.82
  0
VERTEX
  8
1
 10
19648.4
 20
7656.16
  0
VERTEX
  8
1
 10
19659.7
 20
7632.88
  0
VERTEX
  8
1
 10
19674.2
 20
7606.56
  0
VERTEX
  8
1
 10
19690
 20
7581.01
  0
VERTEX
  8
1
 10
19707.1
 20
7556.29
  0
VERTEX
  8
1
 10
19725.4
 20
7532.45
  0
VERTEX
  8
1
 10
19744.9
 20
7509.55
  0
VERTEX
  8
1
 10
19765.4
 20
7487.66
  0
VERTEX
  8
1
 10
19787.2
 20
7466.74
  0
VERTEX
  8
1
 10
19813.4
 20
7443.79
  0
VERTEX
  8
1
 10
19840.7
 20
7421.95
  0
VERTEX
  8
1
 10
19869
 20
7401.34
  0
VERTEX
  8
1
 10
19898.2
 20
7382.01
  0
VERTEX
  8
1
 10
19928.2
 20
7363.99
  0
VERTEX
  8
1
 10
19959
 20
7347.33
  0
VERTEX
  8
1
 10
19990.4
 20
7332.05
  0
VERTEX
  8
1
 10
20023.1
 20
7317.93
  0
VERTEX
  8
1
 10
20078.7
 20
7296.02
  0
VERTEX
  8
1
 10
20135
 20
7275.55
  0
VERTEX
  8
1
 10
20191.8
 20
7256.63
  0
VERTEX
  8
1
 10
20249.2
 20
7239.24
  0
VERTEX
  8
1
 10
20316.4
 20
7220.75
  0
VERTEX
  8
1
 10
20384.1
 20
7203.84
  0
VERTEX
  8
1
 10
20452.1
 20
7188.53
  0
VERTEX
  8
1
 10
20521.7
 20
7174.6
  0
VERTEX
  8
1
 10
20533.5
 20
7172.24
  0
VERTEX
  8
1
 10
20628.5
 20
7141
  0
VERTEX
  8
1
 10
20597
 20
7045.31
  0
VERTEX
  8
1
 10
20086.2
 20
5491.86
  0
VERTEX
  8
1
 10
20083.8
 20
5484.39
  0
VERTEX
  8
1
 10
20045.2
 20
5392.26
  0
VERTEX
  8
1
 10
19952.8
 20
5430.79
  0
VERTEX
  8
1
 10
19576
 20
5587.82
  0
VERTEX
  8
1
 10
19490.8
 20
5619.95
  0
VERTEX
  8
1
 10
19404.4
 20
5649.37
  0
VERTEX
  8
1
 10
19317.2
 20
5676.01
  0
VERTEX
  8
1
 10
19229.1
 20
5699.84
  0
VERTEX
  8
1
 10
19140.4
 20
5720.85
  0
VERTEX
  8
1
 10
19051
 20
5738.99
  0
VERTEX
  8
1
 10
18961
 20
5754.27
  0
VERTEX
  8
1
 10
18871.8
 20
5766.5
  0
VERTEX
  8
1
 10
18783.3
 20
5775.69
  0
VERTEX
  8
1
 10
18694.5
 20
5781.97
  0
VERTEX
  8
1
 10
18605.6
 20
5785.34
  0
VERTEX
  8
1
 10
18516.6
 20
5785.79
  0
VERTEX
  8
1
 10
18427.6
 20
5783.33
  0
VERTEX
  8
1
 10
18338.8
 20
5777.95
  0
VERTEX
  8
1
 10
18249.8
 20
5769.62
  0
VERTEX
  8
1
 10
18210
 20
5764.9
  0
VERTEX
  8
1
 10
18150.5
 20
5751.99
  0
VERTEX
  8
1
 10
18088.3
 20
5736.51
  0
VERTEX
  8
1
 10
18026.5
 20
5719.17
  0
VERTEX
  8
1
 10
17965.6
 20
5700.08
  0
VERTEX
  8
1
 10
17924
 20
5685.38
  0
VERTEX
  8
1
 10
17883.3
 20
5669.06
  0
VERTEX
  8
1
 10
17843.3
 20
5651.05
  0
VERTEX
  8
1
 10
17803.6
 20
5631.12
  0
VERTEX
  8
1
 10
17761.6
 20
5608.43
  0
VERTEX
  8
1
 10
17722.4
 20
5584.03
  0
VERTEX
  8
1
 10
17684.8
 20
5557.25
  0
VERTEX
  8
1
 10
17648.8
 20
5528.11
  0
VERTEX
  8
1
 10
17610.3
 20
5492.94
  0
VERTEX
  8
1
 10
17573.7
 20
5455.57
  0
VERTEX
  8
1
 10
17541.5
 20
5418.74
  0
VERTEX
  8
1
 10
17528
 20
5319.65
  0
SEQEND
  0
ENDBLK
  0
BLOCK
  8
0
  2
PCE_009
 70
0
 10
0
 20
0
  0
POLYLINE
  8
8
 66
1
  0
VERTEX
  8
8
 10
18819.7
 20
11570
  0
VERTEX
  8
8
 10
18512.9
 20
11608.9
  0
VERTEX
  8
8
 10
18425.2
 20
11618.8
  0
VERTEX
  8
8
 10
18359.2
 20
11624.3
  0
VERTEX
  8
8
 10
18293.1
 20
11628.6
  0
VERTEX
  8
8
 10
18226.9
 20
11631.7
  0
VERTEX
  8
8
 10
18160.7
 20
11633.7
  0
VERTEX
  8
8
 10
17956.1
 20
11631.8
  0
VERTEX
  8
8
 10
17751.4
 20
11629.2
  0
VERTEX
  8
8
 10
17546.7
 20
11625.7
  0
VERTEX
  8
8
 10
17342.1
 20
11621.5
  0
VERTEX
  8
8
 10
17141.3
 20
11616.5
  0
VERTEX
  8
8
 10
16940.5
 20
11610.8
  0
VERTEX
  8
8
 10
16739.7
 20
11604.3
  0
VERTEX
  8
8
 10
16538.9
 20
11597
  0
SEQEND
  0
POLYLINE
  8
8
 66
1
  0
VERTEX
  8
8
 10
18819.7
 20
11486.5
  0
VERTEX
  8
8
 10
18502.1
 20
11529.8
  0
VERTEX
  8
8
 10
18158.3
 20
11553.8
  0
VERTEX
  8
8
 10
17954.5
 20
11551.9
  0
VERTEX
  8
8
 10
17750.7
 20
11549.2
  0
VERTEX
  8
8
 10
17547
 20
11545.7
  0
VERTEX
  8
8
 10
17343.3
 20
11541.5
  0
VERTEX
  8
8
 10
17142.1
 20
11536.5
  0
VERTEX
  8
8
 10
16941
 20
11530.8
  0
VERTEX
  8
8
 10
16739.9
 20
11524.3
  0
VERTEX
  8
8
 10
16538.9
 20
11517
  0
SEQEND
  0
POLYLINE
  8
8
 66
1
  0
VERTEX
  8
8
 10
18819.6
 20
13575.6
  0
VERTEX
  8
8
 10
21082.2
 20
13575.5
  0
SEQEND
  0
POLYLINE
  8
8
 66
1
  0
VERTEX
  8
8
 10
18819.6
 20
13495.6
  0
VERTEX
  8
8
 10
21082.2
 20
13495.5
  0
SEQEND
  0
POLYLINE
  8
8
 66
1
  0
VERTEX
  8
8
 10
16538.9
 20
13974.1
  0
VERTEX
  8
8
 10
16538.9
 20
11366.6
  0
SEQEND
  0
POLYLINE
  8
8
 66
1
  0
VERTEX
  8
8
 10
17300.1
 20
13972.4
  0
VERTEX
  8
8
 10
17300.1
 20
11390.6
  0
SEQEND
  0
POLYLINE
  8
8
 66
1
  0
VERTEX
  8
8
 10
18053.3
 20
13970.6
  0
VERTEX
  8
8
 10
18053.3
 20
11403.1
  0
SEQEND
  0
POLYLINE
  8
8
 66
1
  0
VERTEX
  8
8
 10
18819.1
 20
13970.6
  0
VERTEX
  8
8
 10
18819.7
 20
11332.6
  0
SEQEND
  0
POLYLINE
  8
8
 66
1
  0
VERTEX
  8
8
 10
19567.7
 20
13970.6
  0
VERTEX
  8
8
 10
19567.7
 20
11228.9
  0
SEQEND
  0
POLYLINE
  8
8
 66
1
  0
VERTEX
  8
8
 10
20324.9
 20
13977.6
  0
VERTEX
  8
8
 10
20324.9
 20
11125.3
  0
SEQEND
  0
POLYLINE
  8
8
 66
1
  0
VERTEX
  8
8
 10
21082.2
 20
13970.6
  0
VERTEX
  8
8
 10
21082.2
 20
11592.1
  0
SEQEND
  0
POLYLINE
  8
8
 66
1
  0
VERTEX
  8
8
 10
21839.4
 20
13977.6
  0
VERTEX
  8
8
 10
21839.4
 20
11540
  0
SEQEND
  0
POLYLINE
  8
8
 66
1
  0
VERTEX
  8
8
 10
22596.6
 20
13235.8
  0
VERTEX
  8
8
 10
22596.6
 20
11277.8
  0
SEQEND
  0
POLYLINE
  8
8
 66
1
  0
VERTEX
  8
8
 10
20643.4
 20
13145.2
  0
VERTEX
  8
8
 10
20703.4
 20
13145.2
  0
VERTEX
  8
8
 10
20763.4
 20
13145.2
  0
VERTEX
  8
8
 10
20763.4
 20
12745.2
  0
VERTEX
  8
8
 10
20763.4
 20
12345.2
  0
VERTEX
  8
8
 10
20703.4
 20
12345.2
  0
VERTEX
  8
8
 10
20643.4
 20
12345.2
  0
VERTEX
  8
8
 10
20643.4
 20
12745.2
  0
VERTEX
  8
8
 10
20643.4
 20
13145.2
  0
VERTEX
  8
8
 10
20703.4
 20
12745.2
  0
VERTEX
  8
8
 10
20763.4
 20
12345.2
  0
SEQEND
  0
POLYLINE
  8
8
 66
1
  0
VERTEX
  8
8
 10
20643.4
 20
12345.2
  0
VERTEX
  8
8
 10
20703.4
 20
12745.2
  0
VERTEX
  8
8
 10
20763.4
 20
13145.2
  0
SEQEND
  0
POINT
  8
15
 10
20703.6
 20
12745.5
  0
POINT
  8
15
 10
20763.4
 20
13145.2
  0
POINT
  8
15
 10
20643.4
 20
13145.2
  0
POINT
  8
15
 10
20763.4
 20
12345.2
  0
POINT
  8
15
 10
20643.4
 20
12345.2
  0
POLYLINE
  8
7
 66
1
  0
VERTEX
  8
7
 10
17862.6
 20
12283.5
  0
VERTEX
  8
7
 10
18477.5
 20
12283.5
  0
SEQEND
  0
TEXT
  8
19
  1
GLUV_XXL
 10
19427.7
 20
12054.3
 50
90
 40
1
  0
TEXT
  8
19
  1
GUV13XXL
 10
19527.7
 20
12054.3
 50
90
 40
1
  0
TEXT
  8
19
  1
XXL
 10
19627.7
 20
12054.3
 50
90
 40
1
  0
TEXT
  8
19
  1
S1
 10
19727.7
 20
12054.3
 50
90
 40
1
  0
POLYLINE
  8
1
 66
1
  0
VERTEX
  8
1
 10
20309.4
 20
11133
  0
VERTEX
  8
1
 10
20194.5
 20
11148.6
  0
VERTEX
  8
1
 10
18486.2
 20
11380.3
  0
VERTEX
  8
1
 10
18153.6
 20
11403.8
  0
VERTEX
  8
1
 10
17853.3
 20
11401.2
  0
VERTEX
  8
1
 10
17548.8
 20
11396.1
  0
VERTEX
  8
1
 10
17233.8
 20
11388.8
  0
VERTEX
  8
1
 10
16777.9
 20
11375.5
  0
VERTEX
  8
1
 10
16339
 20
11359.6
  0
VERTEX
  8
1
 10
16175.8
 20
11352.3
  0
SEQEND
  0
POLYLINE
  8
11
 66
1
  0
VERTEX
  8
11
 10
16175.8
 20
11352.3
  0
VERTEX
  8
11
 10
16174
 20
11392.3
  0
SEQEND
  0
POLYLINE
  8
1
 66
1
  0
VERTEX
  8
1
 10
16175.8
 20
11352.3
  0
VERTEX
  8
1
 10
15886.2
 20
11339.1
  0
VERTEX
  8
1
 10
15881.7
 20
11338.9
  0
VERTEX
  8
1
 10
15881.7
 20
11439
  0
VERTEX
  8
1
 10
15881.7
 20
13975.6
  0
VERTEX
  8
1
 10
22288.4
 20
13975.5
  0
VERTEX
  8
1
 10
22298
 20
13975.5
  0
VERTEX
  8
1
 10
22396.2
 20
13966
  0
VERTEX
  8
1
 10
22388
 20
13867.3
  0
VERTEX
  8
1
 10
22383.4
 20
13811.2
  0
VERTEX
  8
1
 10
22381.9
 20
13757.7
  0
VERTEX
  8
1
 10
22383.3
 20
13704.1
  0
VERTEX
  8
1
 10
22387.7
 20
13650.9
  0
VERTEX
  8
1
 10
22394.3
 20
13603.7
  0
VERTEX
  8
1
 10
22403.7
 20
13557.1
  0
VERTEX
  8
1
 10
22416
 20
13511.2
  0
VERTEX
  8
1
 10
22429.8
 20
13469.5
  0
VERTEX
  8
1
 10
22441.1
 20
13446.2
  0
VERTEX
  8
1
 10
22455.6
 20
13419.9
  0
VERTEX
  8
1
 10
22471.5
 20
13394.4
  0
VERTEX
  8
1
 10
22488.5
 20
13369.6
  0
VERTEX
  8
1
 10
22506.8
 20
13345.8
  0
VERTEX
  8
1
 10
22526.3
 20
13322.9
  0
VERTEX
  8
1
 10
22546.8
 20
13301
  0
VERTEX
  8
1
 10
22568.6
 20
13280.1
  0
VERTEX
  8
1
 10
22594.8
 20
13257.1
  0
VERTEX
  8
1
 10
22622.1
 20
13235.3
  0
VERTEX
  8
1
 10
22650.4
 20
13214.7
  0
VERTEX
  8
1
 10
22679.6
 20
13195.4
  0
VERTEX
  8
1
 10
22709.6
 20
13177.3
  0
VERTEX
  8
1
 10
22740.4
 20
13160.7
  0
VERTEX
  8
1
 10
22771.8
 20
13145.4
  0
VERTEX
  8
1
 10
22804.6
 20
13131.3
  0
VERTEX
  8
1
 10
22860.1
 20
13109.4
  0
VERTEX
  8
1
 10
22916.4
 20
13088.9
  0
VERTEX
  8
1
 10
22973.2
 20
13070
  0
VERTEX
  8
1
 10
23030.7
 20
13052.6
  0
VERTEX
  8
1
 10
23097.8
 20
13034.1
  0
VERTEX
  8
1
 10
23165.5
 20
13017.2
  0
VERTEX
  8
1
 10
23233.5
 20
13001.9
  0
VERTEX
  8
1
 10
23303.1
 20
12988
  0
VERTEX
  8
1
 10
23314.9
 20
12985.6
  0
VERTEX
  8
1
 10
23409.9
 20
12954.4
  0
VERTEX
  8
1
 10
23378.4
 20
12858.7
  0
VERTEX
  8
1
 10
22867.6
 20
11305.2
  0
VERTEX
  8
1
 10
22865.2
 20
11297.7
  0
VERTEX
  8
1
 10
22826.6
 20
11205.6
  0
VERTEX
  8
1
 10
22734.2
 20
11244.1
  0
VERTEX
  8
1
 10
22357.4
 20
11401.2
  0
VERTEX
  8
1
 10
22272.2
 20
11433.3
  0
VERTEX
  8
1
 10
22185.8
 20
11462.7
  0
VERTEX
  8
1
 10
22098.6
 20
11489.4
  0
VERTEX
  8
1
 10
22010.5
 20
11513.2
  0
VERTEX
  8
1
 10
21921.8
 20
11534.2
  0
VERTEX
  8
1
 10
21832.4
 20
11552.3
  0
VERTEX
  8
1
 10
21742.4
 20
11567.6
  0
VERTEX
  8
1
 10
21653.2
 20
11579.9
  0
VERTEX
  8
1
 10
21564.7
 20
11589
  0
VERTEX
  8
1
 10
21475.9
 20
11595.3
  0
VERTEX
  8
1
 10
21387
 20
11598.7
  0
VERTEX
  8
1
 10
21298
 20
11599.1
  0
VERTEX
  8
1
 10
21209
 20
11596.7
  0
VERTEX
  8
1
 10
21120.2
 20
11591.3
  0
VERTEX
  8
1
 10
21031.2
 20
11583
  0
VERTEX
  8
1
 10
20991.4
 20
11578.3
  0
VERTEX
  8
1
 10
20931.9
 20
11565.3
  0
VERTEX
  8
1
 10
20869.7
 20
11549.9
  0
VERTEX
  8
1
 10
20807.9
 20
11532.5
  0
VERTEX
  8
1
 10
20747
 20
11513.4
  0
VERTEX
  8
1
 10
20705.4
 20
11498.7
  0
VERTEX
  8
1
 10
20664.7
 20
11482.4
  0
VERTEX
  8
1
 10
20624.7
 20
11464.4
  0
VERTEX
  8
1
 10
20585
 20
11444.5
  0
VERTEX
  8
1
 10
20543
 20
11421.8
  0
VERTEX
  8
1
 10
20503.8
 20
11397.4
  0
VERTEX
  8
1
 10
20466.2
 20
11370.6
  0
VERTEX
  8
1
 10
20430.2
 20
11341.5
  0
VERTEX
  8
1
 10
20391.7
 20
11306.3
  0
VERTEX
  8
1
 10
20355.1
 20
11268.9
  0
VERTEX
  8
1
 10
20322.9
 20
11232.1
  0
VERTEX
  8
1
 10
20309.4
 20
11133
  0
SEQEND
  0
ENDBLK
  0
BLOCK
  8
0
  2
PCE_010
 70
0
 10
0
 20
0
  0
POLYLINE
  8
8
 66
1
  0
VERTEX
  8
8
 10
25457.3
 20
4833.02
  0
VERTEX
  8
8
 10
25457.3
 20
2886.32
  0
SEQEND
  0
POLYLINE
  8
8
 66
1
  0
VERTEX
  8
8
 10
20913.9
 20
363.616
  0
VERTEX
  8
8
 10
20914
 20
2886.36
  0
SEQEND
  0
POLYLINE
  8
8
 66
1
  0
VERTEX
  8
8
 10
20914
 20
5409.06
  0
VERTEX
  8
8
 10
20914
 20
2886.32
  0
SEQEND
  0
POLYLINE
  8
8
 66
1
  0
VERTEX
  8
8
 10
21675.1
 20
422.564
  0
VERTEX
  8
8
 10
21675.2
 20
2886.33
  0
SEQEND
  0
POLYLINE
  8
8
 66
1
  0
VERTEX
  8
8
 10
21675.2
 20
5350.09
  0
VERTEX
  8
8
 10
21675.2
 20
2886.32
  0
SEQEND
  0
POLYLINE
  8
8
 66
1
  0
VERTEX
  8
8
 10
22428.4
 20
434.998
  0
VERTEX
  8
8
 10
22428.4
 20
2886.3
  0
SEQEND
  0
POLYLINE
  8
8
 66
1
  0
VERTEX
  8
8
 10
22428.4
 20
5337.62
  0
VERTEX
  8
8
 10
22428.4
 20
2886.32
  0
SEQEND
  0
POLYLINE
  8
8
 66
1
  0
VERTEX
  8
8
 10
23942.8
 20
136.469
  0
VERTEX
  8
8
 10
23942.9
 20
2886.25
  0
SEQEND
  0
POLYLINE
  8
8
 66
1
  0
VERTEX
  8
8
 10
23942.9
 20
5636.1
  0
VERTEX
  8
8
 10
23942.9
 20
2886.32
  0
SEQEND
  0
POLYLINE
  8
8
 66
1
  0
VERTEX
  8
8
 10
23194.1
 20
324.686
  0
VERTEX
  8
8
 10
23194.2
 20
2886.27
  0
SEQEND
  0
POLYLINE
  8
8
 66
1
  0
VERTEX
  8
8
 10
23194.2
 20
5447.91
  0
VERTEX
  8
8
 10
23194.2
 20
2886.32
  0
SEQEND
  0
POLYLINE
  8
8
 66
1
  0
VERTEX
  8
8
 10
24700
 20
576.095
  0
VERTEX
  8
8
 10
24700.1
 20
2886.22
  0
SEQEND
  0
POLYLINE
  8
8
 66
1
  0
VERTEX
  8
8
 10
24700.1
 20
5196.45
  0
VERTEX
  8
8
 10
24700.1
 20
2886.32
  0
SEQEND
  0
POLYLINE
  8
8
 66
1
  0
VERTEX
  8
8
 10
25457.2
 20
939.492
  0
VERTEX
  8
8
 10
25457.3
 20
2886.19
  0
SEQEND
  0
POLYLINE
  8
8
 66
1
  0
VERTEX
  8
8
 10
26971.6
 20
973.175
  0
VERTEX
  8
8
 10
26971.7
 20
2886.14
  0
SEQEND
  0
POLYLINE
  8
8
 66
1
  0
VERTEX
  8
8
 10
26971.7
 20
4799.28
  0
VERTEX
  8
8
 10
26971.7
 20
2886.32
  0
SEQEND
  0
POLYLINE
  8
8
 66
1
  0
VERTEX
  8
8
 10
26214.4
 20
1037.91
  0
VERTEX
  8
8
 10
26214.5
 20
2886.17
  0
SEQEND
  0
POLYLINE
  8
8
 66
1
  0
VERTEX
  8
8
 10
26214.5
 20
4734.58
  0
VERTEX
  8
8
 10
26214.5
 20
2886.32
  0
SEQEND
  0
POLYLINE
  8
7
 66
1
  0
VERTEX
  8
7
 10
23570.5
 20
2886.27
  0
VERTEX
  8
7
 10
24379.6
 20
2886.27
  0
SEQEND
  0
TEXT
  8
19
  1
GLUV_XXL
 10
23808.5
 20
2386.28
 50
90
 40
1
  0
TEXT
  8
19
  1
GUV13XXL
 10
23908.5
 20
2386.28
 50
90
 40
1
  0
TEXT
  8
19
  1
XXL
 10
24008.5
 20
2386.28
 50
90
 40
1
  0
TEXT
  8
19
  1
S1
 10
24108.5
 20
2386.28
 50
90
 40
1
  0
POLYLINE
  8
1
 66
1
  0
VERTEX
  8
1
 10
27782.3
 20
2883.48
  0
VERTEX
  8
1
 10
27782.1
 20
2888.96
  0
SEQEND
  0
POLYLINE
  8
11
 66
1
  0
VERTEX
  8
11
 10
27782.1
 20
2888.96
  0
VERTEX
  8
11
 10
27742.1
 20
2887.93
  0
SEQEND
  0
POLYLINE
  8
1
 66
1
  0
VERTEX
  8
1
 10
27782.1
 20
2888.96
  0
VERTEX
  8
1
 10
27773.6
 20
3200.86
  0
VERTEX
  8
1
 10
27773.4
 20
3267.23
  0
VERTEX
  8
1
 10
27775.9
 20
3375.9
  0
VERTEX
  8
1
 10
27778.5
 20
3415.51
  0
VERTEX
  8
1
 10
27782.3
 20
3455.26
  0
VERTEX
  8
1
 10
27791.5
 20
3524.8
  0
VERTEX
  8
1
 10
27796.6
 20
3550.6
  0
VERTEX
  8
1
 10
27803.2
 20
3576.75
  0
VERTEX
  8
1
 10
27810.9
 20
3602.21
  0
VERTEX
  8
1
 10
27817.6
 20
3620.27
  0
VERTEX
  8
1
 10
27825.3
 20
3637.57
  0
VERTEX
  8
1
 10
27834
 20
3654.34
  0
VERTEX
  8
1
 10
27843.6
 20
3670.07
  0
VERTEX
  8
1
 10
27871.2
 20
3708.79
  0
VERTEX
  8
1
 10
27901.6
 20
3746.5
  0
VERTEX
  8
1
 10
27940.8
 20
3789.77
  0
VERTEX
  8
1
 10
27984.1
 20
3832.94
  0
VERTEX
  8
1
 10
28026.4
 20
3875.19
  0
VERTEX
  8
1
 10
28009.2
 20
3932.5
  0
VERTEX
  8
1
 10
27724.7
 20
4880.3
  0
VERTEX
  8
1
 10
27695.2
 20
4978.72
  0
VERTEX
  8
1
 10
27597.6
 20
4946.51
  0
VERTEX
  8
1
 10
27531.7
 20
4924.76
  0
VERTEX
  8
1
 10
27466.3
 20
4904.36
  0
VERTEX
  8
1
 10
27400.5
 20
4885.07
  0
VERTEX
  8
1
 10
27334.4
 20
4866.88
  0
VERTEX
  8
1
 10
27268
 20
4849.81
  0
VERTEX
  8
1
 10
27201.4
 20
4833.85
  0
VERTEX
  8
1
 10
27134.5
 20
4819
  0
VERTEX
  8
1
 10
27067.3
 20
4805.29
  0
VERTEX
  8
1
 10
27002.4
 20
4793.16
  0
VERTEX
  8
1
 10
26937.2
 20
4782.17
  0
VERTEX
  8
1
 10
26871.8
 20
4772.31
  0
VERTEX
  8
1
 10
26806.3
 20
4763.58
  0
VERTEX
  8
1
 10
26740.7
 20
4756
  0
VERTEX
  8
1
 10
26674.9
 20
4749.55
  0
VERTEX
  8
1
 10
26609.3
 20
4744.27
  0
VERTEX
  8
1
 10
26479.1
 20
4736.97
  0
VERTEX
  8
1
 10
26416.2
 20
4734.98
  0
VERTEX
  8
1
 10
26352.9
 20
4734.06
  0
VERTEX
  8
1
 10
26289.5
 20
4734.23
  0
VERTEX
  8
1
 10
26226.2
 20
4735.49
  0
VERTEX
  8
1
 10
26163
 20
4737.84
  0
VERTEX
  8
1
 10
26099.7
 20
4741.27
  0
VERTEX
  8
1
 10
26036.6
 20
4745.79
  0
VERTEX
  8
1
 10
25977.3
 20
4751.09
  0
VERTEX
  8
1
 10
25918.2
 20
4757.46
  0
VERTEX
  8
1
 10
25859.2
 20
4764.91
  0
VERTEX
  8
1
 10
25813.5
 20
4771.52
  0
SEQEND
  0
POLYLINE
  8
11
 66
1
  0
VERTEX
  8
11
 10
25813.5
 20
4771.52
  0
VERTEX
  8
11
 10
25807.6
 20
4731.97
  0
SEQEND
  0
POLYLINE
  8
1
 66
1
  0
VERTEX
  8
1
 10
25813.5
 20
4771.52
  0
VERTEX
  8
1
 10
25800.4
 20
4773.43
  0
VERTEX
  8
1
 10
25741.7
 20
4783.03
  0
VERTEX
  8
1
 10
25683.2
 20
4793.69
  0
VERTEX
  8
1
 10
25625.2
 20
4805.34
  0
VERTEX
  8
1
 10
25513
 20
4830.92
  0
VERTEX
  8
1
 10
25460.7
 20
4844.53
  0
VERTEX
  8
1
 10
25408.5
 20
4859.46
  0
VERTEX
  8
1
 10
25356.5
 20
4875.59
  0
VERTEX
  8
1
 10
25305
 20
4892.92
  0
VERTEX
  8
1
 10
25253.9
 20
4911.43
  0
VERTEX
  8
1
 10
25203.2
 20
4931.13
  0
VERTEX
  8
1
 10
25153.1
 20
4951.96
  0
VERTEX
  8
1
 10
25108.2
 20
4971.89
  0
VERTEX
  8
1
 10
25063.9
 20
4992.93
  0
VERTEX
  8
1
 10
25020.2
 20
5015.08
  0
VERTEX
  8
1
 10
24977.1
 20
5038.34
  0
VERTEX
  8
1
 10
24934.5
 20
5062.7
  0
VERTEX
  8
1
 10
24892.6
 20
5088.12
  0
VERTEX
  8
1
 10
24851.4
 20
5114.61
  0
VERTEX
  8
1
 10
24811.4
 20
5141.75
  0
VERTEX
  8
1
 10
24775.8
 20
5167.97
  0
VERTEX
  8
1
 10
24741
 20
5195.57
  0
VERTEX
  8
1
 10
24707.2
 20
5224.35
  0
VERTEX
  8
1
 10
24674.4
 20
5254.26
  0
VERTEX
  8
1
 10
24644.2
 20
5283.83
  0
VERTEX
  8
1
 10
24615.2
 20
5314.43
  0
VERTEX
  8
1
 10
24587.3
 20
5346.08
  0
VERTEX
  8
1
 10
24560.7
 20
5378.56
  0
VERTEX
  8
1
 10
24536.5
 20
5410.63
  0
VERTEX
  8
1
 10
24513.9
 20
5443.56
  0
VERTEX
  8
1
 10
24492.7
 20
5477.46
  0
VERTEX
  8
1
 10
24473.1
 20
5512.25
  0
VERTEX
  8
1
 10
24455.3
 20
5547.32
  0
VERTEX
  8
1
 10
24439.1
 20
5583.13
  0
VERTEX
  8
1
 10
24424.6
 20
5619.64
  0
VERTEX
  8
1
 10
24410.9
 20
5658.87
  0
VERTEX
  8
1
 10
24380.1
 20
5747.55
  0
VERTEX
  8
1
 10
24289.6
 20
5722.32
  0
VERTEX
  8
1
 10
24141
 20
5680.87
  0
VERTEX
  8
1
 10
23992.2
 20
5640.43
  0
VERTEX
  8
1
 10
23843.4
 20
5601.09
  0
VERTEX
  8
1
 10
23569.7
 20
5531.67
  0
VERTEX
  8
1
 10
23446.5
 20
5502.04
  0
VERTEX
  8
1
 10
23322.7
 20
5473.33
  0
VERTEX
  8
1
 10
23028.9
 20
5408.25
  0
VERTEX
  8
1
 10
22945.7
 20
5392.53
  0
VERTEX
  8
1
 10
22861.6
 20
5378.36
  0
VERTEX
  8
1
 10
22778.1
 20
5365.98
  0
VERTEX
  8
1
 10
22694.3
 20
5355.28
  0
VERTEX
  8
1
 10
22610.4
 20
5346.26
  0
VERTEX
  8
1
 10
22528.7
 20
5339.14
  0
VERTEX
  8
1
 10
22526.2
 20
5339.1
  0
SEQEND
  0
POLYLINE
  8
11
 66
1
  0
VERTEX
  8
11
 10
22526.2
 20
5339.1
  0
VERTEX
  8
11
 10
22529.3
 20
5299.21
  0
SEQEND
  0
POLYLINE
  8
1
 66
1
  0
VERTEX
  8
1
 10
22526.2
 20
5339.1
  0
VERTEX
  8
1
 10
22396.6
 20
5336.93
  0
VERTEX
  8
1
 10
22261.4
 20
5336.19
  0
VERTEX
  8
1
 10
22126.3
 20
5336.95
  0
VERTEX
  8
1
 10
21991.1
 20
5339.23
  0
VERTEX
  8
1
 10
21856
 20
5343.01
  0
VERTEX
  8
1
 10
21721
 20
5348.3
  0
VERTEX
  8
1
 10
21586
 20
5355.1
  0
VERTEX
  8
1
 10
21451
 20
5363.4
  0
VERTEX
  8
1
 10
21303.1
 20
5374.1
  0
VERTEX
  8
1
 10
21155.3
 20
5386.3
  0
VERTEX
  8
1
 10
21007.6
 20
5400
  0
VERTEX
  8
1
 10
20860
 20
5415.21
  0
VERTEX
  8
1
 10
20712.6
 20
5431.92
  0
VERTEX
  8
1
 10
20565.4
 20
5450.13
  0
VERTEX
  8
1
 10
20418.4
 20
5469.84
  0
VERTEX
  8
1
 10
20274.5
 20
5490.63
  0
VERTEX
  8
1
 10
20256.8
 20
5392.15
  0
VERTEX
  8
1
 10
20235.3
 20
5272.35
  0
VERTEX
  8
1
 10
20214.9
 20
5152.35
  0
VERTEX
  8
1
 10
20195.7
 20
5032.16
  0
VERTEX
  8
1
 10
20177.6
 20
4911.78
  0
VERTEX
  8
1
 10
20160.8
 20
4791.24
  0
VERTEX
  8
1
 10
20145.1
 20
4670.54
  0
VERTEX
  8
1
 10
20130.5
 20
4549.69
  0
VERTEX
  8
1
 10
20117.2
 20
4428.7
  0
VERTEX
  8
1
 10
20104.6
 20
4303.28
  0
VERTEX
  8
1
 10
20093.1
 20
4177.75
  0
VERTEX
  8
1
 10
20082.8
 20
4052.11
  0
VERTEX
  8
1
 10
20073.7
 20
3926.38
  0
VERTEX
  8
1
 10
20065.8
 20
3800.57
  0
VERTEX
  8
1
 10
20059.1
 20
3674.7
  0
VERTEX
  8
1
 10
20053.5
 20
3548.76
  0
VERTEX
  8
1
 10
20049.1
 20
3422.78
  0
VERTEX
  8
1
 10
20053.5
 20
2886.35
  0
SEQEND
  0
POLYLINE
  8
11
 66
1
  0
VERTEX
  8
11
 10
20053.5
 20
2886.35
  0
VERTEX
  8
11
 10
20093.5
 20
2886.68
  0
SEQEND
  0
POLYLINE
  8
1
 66
1
  0
VERTEX
  8
1
 10
20053.5
 20
2886.35
  0
VERTEX
  8
1
 10
20049.1
 20
2349.93
  0
VERTEX
  8
1
 10
20053.5
 20
2223.94
  0
VERTEX
  8
1
 10
20059
 20
2098.01
  0
VERTEX
  8
1
 10
20065.8
 20
1972.13
  0
VERTEX
  8
1
 10
20073.7
 20
1846.33
  0
VERTEX
  8
1
 10
20082.8
 20
1720.6
  0
VERTEX
  8
1
 10
20093.1
 20
1594.96
  0
VERTEX
  8
1
 10
20104.5
 20
1469.42
  0
VERTEX
  8
1
 10
20117.1
 20
1344
  0
VERTEX
  8
1
 10
20130.5
 20
1223.02
  0
VERTEX
  8
1
 10
20145
 20
1102.17
  0
VERTEX
  8
1
 10
20160.7
 20
981.465
  0
VERTEX
  8
1
 10
20177.6
 20
860.921
  0
VERTEX
  8
1
 10
20195.6
 20
740.546
  0
VERTEX
  8
1
 10
20214.8
 20
620.351
  0
VERTEX
  8
1
 10
20235.2
 20
500.35
  0
VERTEX
  8
1
 10
20256.7
 20
380.551
  0
VERTEX
  8
1
 10
20274.4
 20
282.071
  0
VERTEX
  8
1
 10
20418.3
 20
302.851
  0
VERTEX
  8
1
 10
20565.3
 20
322.558
  0
VERTEX
  8
1
 10
20712.6
 20
340.763
  0
VERTEX
  8
1
 10
20859.9
 20
357.468
  0
VERTEX
  8
1
 10
21007.5
 20
372.672
  0
VERTEX
  8
1
 10
21155.2
 20
386.372
  0
VERTEX
  8
1
 10
21303
 20
398.568
  0
VERTEX
  8
1
 10
21451
 20
409.255
  0
VERTEX
  8
1
 10
21585.9
 20
417.556
  0
VERTEX
  8
1
 10
21720.9
 20
424.349
  0
VERTEX
  8
1
 10
21855.9
 20
429.633
  0
VERTEX
  8
1
 10
21991
 20
433.41
  0
VERTEX
  8
1
 10
22126.2
 20
435.68
  0
VERTEX
  8
1
 10
22261.3
 20
436.439
  0
VERTEX
  8
1
 10
22396.5
 20
435.689
  0
VERTEX
  8
1
 10
22526.1
 20
433.523
  0
SEQEND
  0
POLYLINE
  8
11
 66
1
  0
VERTEX
  8
11
 10
22526.1
 20
433.523
  0
VERTEX
  8
11
 10
22529.2
 20
473.404
  0
SEQEND
  0
POLYLINE
  8
1
 66
1
  0
VERTEX
  8
1
 10
22526.1
 20
433.523
  0
VERTEX
  8
1
 10
22528.6
 20
433.481
  0
VERTEX
  8
1
 10
22610.3
 20
426.358
  0
VERTEX
  8
1
 10
22694.2
 20
417.333
  0
VERTEX
  8
1
 10
22778
 20
406.629
  0
VERTEX
  8
1
 10
22861.5
 20
394.25
  0
VERTEX
  8
1
 10
22945.6
 20
380.079
  0
VERTEX
  8
1
 10
23028.8
 20
364.347
  0
VERTEX
  8
1
 10
23322.6
 20
299.265
  0
VERTEX
  8
1
 10
23446.4
 20
270.541
  0
VERTEX
  8
1
 10
23569.6
 20
240.909
  0
VERTEX
  8
1
 10
23843.3
 20
171.483
  0
VERTEX
  8
1
 10
23992.1
 20
132.131
  0
VERTEX
  8
1
 10
24140.9
 20
91.6864
  0
VERTEX
  8
1
 10
24289.5
 20
50.235
  0
VERTEX
  8
1
 10
24380
 20
25
  0
VERTEX
  8
1
 10
24410.8
 20
113.683
  0
VERTEX
  8
1
 10
24424.5
 20
152.91
  0
VERTEX
  8
1
 10
24439
 20
189.416
  0
VERTEX
  8
1
 10
24455.2
 20
225.229
  0
VERTEX
  8
1
 10
24473
 20
260.301
  0
VERTEX
  8
1
 10
24492.6
 20
295.086
  0
VERTEX
  8
1
 10
24513.8
 20
328.983
  0
VERTEX
  8
1
 10
24536.4
 20
361.919
  0
VERTEX
  8
1
 10
24560.6
 20
393.979
  0
VERTEX
  8
1
 10
24587.2
 20
426.47
  0
VERTEX
  8
1
 10
24615.1
 20
458.109
  0
VERTEX
  8
1
 10
24644.2
 20
488.72
  0
VERTEX
  8
1
 10
24674.3
 20
518.281
  0
VERTEX
  8
1
 10
24707.1
 20
548.192
  0
VERTEX
  8
1
 10
24740.9
 20
576.975
  0
VERTEX
  8
1
 10
24775.7
 20
604.563
  0
VERTEX
  8
1
 10
24811.3
 20
630.789
  0
VERTEX
  8
1
 10
24851.3
 20
657.93
  0
VERTEX
  8
1
 10
24892.5
 20
684.413
  0
VERTEX
  8
1
 10
24934.4
 20
709.836
  0
VERTEX
  8
1
 10
24977
 20
734.188
  0
VERTEX
  8
1
 10
25020.1
 20
757.448
  0
VERTEX
  8
1
 10
25063.9
 20
779.602
  0
VERTEX
  8
1
 10
25108.1
 20
800.636
  0
VERTEX
  8
1
 10
25153
 20
820.559
  0
VERTEX
  8
1
 10
25203.1
 20
841.397
  0
VERTEX
  8
1
 10
25253.8
 20
861.088
  0
VERTEX
  8
1
 10
25304.9
 20
879.601
  0
VERTEX
  8
1
 10
25356.5
 20
896.927
  0
VERTEX
  8
1
 10
25408.4
 20
913.057
  0
VERTEX
  8
1
 10
25460.7
 20
927.98
  0
VERTEX
  8
1
 10
25512.9
 20
941.591
  0
VERTEX
  8
1
 10
25625.2
 20
967.164
  0
VERTEX
  8
1
 10
25683.1
 20
978.818
  0
VERTEX
  8
1
 10
25741.6
 20
989.478
  0
VERTEX
  8
1
 10
25800.3
 20
999.071
  0
VERTEX
  8
1
 10
25813.5
 20
1000.98
  0
SEQEND
  0
POLYLINE
  8
11
 66
1
  0
VERTEX
  8
11
 10
25813.5
 20
1000.98
  0
VERTEX
  8
11
 10
25807.5
 20
1040.54
  0
SEQEND
  0
POLYLINE
  8
1
 66
1
  0
VERTEX
  8
1
 10
25813.5
 20
1000.98
  0
VERTEX
  8
1
 10
25859.2
 20
1007.59
  0
VERTEX
  8
1
 10
25918.1
 20
1015.04
  0
VERTEX
  8
1
 10
25977.3
 20
1021.41
  0
VERTEX
  8
1
 10
26036.5
 20
1026.7
  0
VERTEX
  8
1
 10
26099.7
 20
1031.22
  0
VERTEX
  8
1
 10
26162.9
 20
1034.65
  0
VERTEX
  8
1
 10
26226.2
 20
1036.99
  0
VERTEX
  8
1
 10
26289.5
 20
1038.25
  0
VERTEX
  8
1
 10
26352.8
 20
1038.42
  0
VERTEX
  8
1
 10
26416.1
 20
1037.5
  0
VERTEX
  8
1
 10
26479
 20
1035.51
  0
VERTEX
  8
1
 10
26609.3
 20
1028.2
  0
VERTEX
  8
1
 10
26674.8
 20
1022.92
  0
VERTEX
  8
1
 10
26740.6
 20
1016.47
  0
VERTEX
  8
1
 10
26806.2
 20
1008.88
  0
VERTEX
  8
1
 10
26871.8
 20
1000.16
  0
VERTEX
  8
1
 10
26937.1
 20
990.292
  0
VERTEX
  8
1
 10
27002.3
 20
979.296
  0
VERTEX
  8
1
 10
27067.3
 20
967.168
  0
VERTEX
  8
1
 10
27134.4
 20
953.45
  0
VERTEX
  8
1
 10
27201.3
 20
938.605
  0
VERTEX
  8
1
 10
27268
 20
922.641
  0
VERTEX
  8
1
 10
27334.3
 20
905.562
  0
VERTEX
  8
1
 10
27400.4
 20
887.372
  0
VERTEX
  8
1
 10
27466.2
 20
868.077
  0
VERTEX
  8
1
 10
27531.6
 20
847.682
  0
VERTEX
  8
1
 10
27597.5
 20
825.931
  0
VERTEX
  8
1
 10
27695.1
 20
793.711
  0
VERTEX
  8
1
 10
27724.6
 20
892.133
  0
VERTEX
  8
1
 10
28009.2
 20
1839.93
  0
VERTEX
  8
1
 10
28026.4
 20
1897.23
  0
VERTEX
  8
1
 10
27984
 20
1939.48
  0
VERTEX
  8
1
 10
27940.7
 20
1982.66
  0
VERTEX
  8
1
 10
27901.6
 20
2025.92
  0
VERTEX
  8
1
 10
27871.1
 20
2063.63
  0
VERTEX
  8
1
 10
27843.5
 20
2102.36
  0
VERTEX
  8
1
 10
27834
 20
2118.09
  0
VERTEX
  8
1
 10
27825.2
 20
2134.86
  0
VERTEX
  8
1
 10
27817.6
 20
2152.16
  0
VERTEX
  8
1
 10
27810.9
 20
2170.22
  0
VERTEX
  8
1
 10
27803.1
 20
2195.68
  0
VERTEX
  8
1
 10
27796.6
 20
2221.83
  0
VERTEX
  8
1
 10
27791.5
 20
2247.63
  0
VERTEX
  8
1
 10
27782.3
 20
2317.17
  0
VERTEX
  8
1
 10
27778.5
 20
2356.92
  0
VERTEX
  8
1
 10
27775.9
 20
2396.53
  0
VERTEX
  8
1
 10
27773.3
 20
2505.2
  0
VERTEX
  8
1
 10
27773.5
 20
2571.57
  0
VERTEX
  8
1
 10
27782.1
 20
2883.47
  0
SEQEND
  0
POLYLINE
  8
11
 66
1
  0
VERTEX
  8
11
 10
27782.1
 20
2883.47
  0
VERTEX
  8
11
 10
27742.1
 20
2884.5
  0
SEQEND
  0
POLYLINE
  8
1
 66
1
  0
VERTEX
  8
1
 10
27782.1
 20
2883.47
  0
VERTEX
  8
1
 10
27782.3
 20
2883.48
  0
SEQEND
  0
ENDBLK
  0
BLOCK
  8
0
  2
PCE_011
 70
0
 10
0
 20
0
  0
POLYLINE
  8
8
 66
1
  0
VERTEX
  8
8
 10
25089.3
 20
11169.8
  0
VERTEX
  8
8
 10
25396.2
 20
11130.9
  0
VERTEX
  8
8
 10
25483.9
 20
11120.9
  0
VERTEX
  8
8
 10
25549.9
 20
11115.5
  0
VERTEX
  8
8
 10
25615.9
 20
11111.2
  0
VERTEX
  8
8
 10
25682.1
 20
11108
  0
VERTEX
  8
8
 10
25748.3
 20
11106
  0
VERTEX
  8
8
 10
25953
 20
11107.9
  0
VERTEX
  8
8
 10
26157.6
 20
11110.6
  0
VERTEX
  8
8
 10
26362.3
 20
11114.1
  0
VERTEX
  8
8
 10
26566.9
 20
11118.3
  0
VERTEX
  8
8
 10
26767.7
 20
11123.2
  0
VERTEX
  8
8
 10
26968.6
 20
11129
  0
VERTEX
  8
8
 10
27169.4
 20
11135.4
  0
VERTEX
  8
8
 10
27370.1
 20
11142.7
  0
SEQEND
  0
POLYLINE
  8
8
 66
1
  0
VERTEX
  8
8
 10
25089.3
 20
11253.2
  0
VERTEX
  8
8
 10
25406.9
 20
11210
  0
VERTEX
  8
8
 10
25750.8
 20
11186
  0
VERTEX
  8
8
 10
25954.5
 20
11187.9
  0
VERTEX
  8
8
 10
26158.3
 20
11190.6
  0
VERTEX
  8
8
 10
26362
 20
11194
  0
VERTEX
  8
8
 10
26565.7
 20
11198.3
  0
VERTEX
  8
8
 10
26766.9
 20
11203.2
  0
VERTEX
  8
8
 10
26968
 20
11209
  0
VERTEX
  8
8
 10
27169.1
 20
11215.5
  0
VERTEX
  8
8
 10
27370.1
 20
11222.8
  0
SEQEND
  0
POLYLINE
  8
8
 66
1
  0
VERTEX
  8
8
 10
25089.5
 20
9164.21
  0
VERTEX
  8
8
 10
22826.9
 20
9164.21
  0
SEQEND
  0
POLYLINE
  8
8
 66
1
  0
VERTEX
  8
8
 10
25089.5
 20
9244.21
  0
VERTEX
  8
8
 10
22826.9
 20
9244.21
  0
SEQEND
  0
POLYLINE
  8
8
 66
1
  0
VERTEX
  8
8
 10
27370.1
 20
8765.63
  0
VERTEX
  8
8
 10
27370.1
 20
11373.2
  0
SEQEND
  0
POLYLINE
  8
8
 66
1
  0
VERTEX
  8
8
 10
26609
 20
8767.38
  0
VERTEX
  8
8
 10
26609
 20
11349.1
  0
SEQEND
  0
POLYLINE
  8
8
 66
1
  0
VERTEX
  8
8
 10
25855.7
 20
8769.12
  0
VERTEX
  8
8
 10
25855.7
 20
11336.7
  0
SEQEND
  0
POLYLINE
  8
8
 66
1
  0
VERTEX
  8
8
 10
25089.9
 20
8769.12
  0
VERTEX
  8
8
 10
25089.3
 20
11407.2
  0
SEQEND
  0
POLYLINE
  8
8
 66
1
  0
VERTEX
  8
8
 10
24341.3
 20
8769.12
  0
VERTEX
  8
8
 10
24341.3
 20
11510.8
  0
SEQEND
  0
POLYLINE
  8
8
 66
1
  0
VERTEX
  8
8
 10
23584.1
 20
8762.15
  0
VERTEX
  8
8
 10
23584.1
 20
11614.5
  0
SEQEND
  0
POLYLINE
  8
8
 66
1
  0
VERTEX
  8
8
 10
22826.9
 20
8769.12
  0
VERTEX
  8
8
 10
22826.9
 20
11147.7
  0
SEQEND
  0
POLYLINE
  8
8
 66
1
  0
VERTEX
  8
8
 10
22069.6
 20
8762.15
  0
VERTEX
  8
8
 10
22069.6
 20
11199.7
  0
SEQEND
  0
POLYLINE
  8
8
 66
1
  0
VERTEX
  8
8
 10
21312.4
 20
9503.91
  0
VERTEX
  8
8
 10
21312.4
 20
11461.9
  0
SEQEND
  0
POLYLINE
  8
8
 66
1
  0
VERTEX
  8
8
 10
23265.6
 20
9594.56
  0
VERTEX
  8
8
 10
23205.6
 20
9594.56
  0
VERTEX
  8
8
 10
23145.6
 20
9594.56
  0
VERTEX
  8
8
 10
23145.6
 20
9994.56
  0
VERTEX
  8
8
 10
23145.6
 20
10394.6
  0
VERTEX
  8
8
 10
23205.6
 20
10394.6
  0
VERTEX
  8
8
 10
23265.6
 20
10394.6
  0
VERTEX
  8
8
 10
23265.6
 20
9994.56
  0
VERTEX
  8
8
 10
23265.6
 20
9594.56
  0
VERTEX
  8
8
 10
23205.6
 20
9994.56
  0
VERTEX
  8
8
 10
23145.6
 20
10394.6
  0
SEQEND
  0
POLYLINE
  8
8
 66
1
  0
VERTEX
  8
8
 10
23265.6
 20
10394.6
  0
VERTEX
  8
8
 10
23205.6
 20
9994.56
  0
VERTEX
  8
8
 10
23145.6
 20
9594.56
  0
SEQEND
  0
POINT
  8
15
 10
23205.5
 20
9994.21
  0
POINT
  8
15
 10
23145.6
 20
9594.56
  0
POINT
  8
15
 10
23265.6
 20
9594.56
  0
POINT
  8
15
 10
23145.6
 20
10394.6
  0
POINT
  8
15
 10
23265.6
 20
10394.6
  0
POLYLINE
  8
7
 66
1
  0
VERTEX
  8
7
 10
26046.4
 20
10456.2
  0
VERTEX
  8
7
 10
25431.5
 20
10456.2
  0
SEQEND
  0
TEXT
  8
19
  1
GLUV_XXL
 10
24045.2
 20
9685.48
 50
90
 40
1
  0
TEXT
  8
19
  1
GUV13XXL
 10
24145.2
 20
9685.48
 50
90
 40
1
  0
TEXT
  8
19
  1
XXL
 10
24245.2
 20
9685.48
 50
90
 40
1
  0
TEXT
  8
19
  1
S1
 10
24345.2
 20
9685.48
 50
90
 40
1
  0
POLYLINE
  8
1
 66
1
  0
VERTEX
  8
1
 10
23599.6
 20
11606.8
  0
VERTEX
  8
1
 10
23714.5
 20
11591.2
  0
VERTEX
  8
1
 10
25422.8
 20
11359.4
  0
VERTEX
  8
1
 10
25755.4
 20
11336
  0
VERTEX
  8
1
 10
26055.8
 20
11338.5
  0
VERTEX
  8
1
 10
26360.2
 20
11343.7
  0
VERTEX
  8
1
 10
26675.2
 20
11351
  0
VERTEX
  8
1
 10
27131.1
 20
11364.3
  0
VERTEX
  8
1
 10
27570
 20
11380.1
  0
VERTEX
  8
1
 10
27733.2
 20
11387.5
  0
SEQEND
  0
POLYLINE
  8
11
 66
1
  0
VERTEX
  8
11
 10
27733.2
 20
11387.5
  0
VERTEX
  8
11
 10
27735.1
 20
11347.5
  0
SEQEND
  0
POLYLINE
  8
1
 66
1
  0
VERTEX
  8
1
 10
27733.2
 20
11387.5
  0
VERTEX
  8
1
 10
28022.8
 20
11400.6
  0
VERTEX
  8
1
 10
28027.3
 20
11400.8
  0
VERTEX
  8
1
 10
28027.3
 20
11300.7
  0
VERTEX
  8
1
 10
28027.3
 20
8764.21
  0
VERTEX
  8
1
 10
21620.7
 20
8764.21
  0
VERTEX
  8
1
 10
21611
 20
8764.21
  0
VERTEX
  8
1
 10
21512.8
 20
8773.71
  0
VERTEX
  8
1
 10
21521
 20
8872.48
  0
VERTEX
  8
1
 10
21525.7
 20
8928.58
  0
VERTEX
  8
1
 10
21527.2
 20
8982.11
  0
VERTEX
  8
1
 10
21525.7
 20
9035.64
  0
VERTEX
  8
1
 10
21521.4
 20
9088.87
  0
VERTEX
  8
1
 10
21514.7
 20
9136.08
  0
VERTEX
  8
1
 10
21505.3
 20
9182.66
  0
VERTEX
  8
1
 10
21493.1
 20
9228.59
  0
VERTEX
  8
1
 10
21479.2
 20
9270.25
  0
VERTEX
  8
1
 10
21467.9
 20
9293.53
  0
VERTEX
  8
1
 10
21453.4
 20
9319.84
  0
VERTEX
  8
1
 10
21437.6
 20
9345.39
  0
VERTEX
  8
1
 10
21420.5
 20
9370.12
  0
VERTEX
  8
1
 10
21402.2
 20
9393.96
  0
VERTEX
  8
1
 10
21382.8
 20
9416.85
  0
VERTEX
  8
1
 10
21362.2
 20
9438.74
  0
VERTEX
  8
1
 10
21340.4
 20
9459.67
  0
VERTEX
  8
1
 10
21314.2
 20
9482.61
  0
VERTEX
  8
1
 10
21286.9
 20
9504.46
  0
VERTEX
  8
1
 10
21258.6
 20
9525.07
  0
VERTEX
  8
1
 10
21229.4
 20
9544.4
  0
VERTEX
  8
1
 10
21199.4
 20
9562.41
  0
VERTEX
  8
1
 10
21168.7
 20
9579.08
  0
VERTEX
  8
1
 10
21137.2
 20
9594.35
  0
VERTEX
  8
1
 10
21104.5
 20
9608.48
  0
VERTEX
  8
1
 10
21048.9
 20
9630.39
  0
VERTEX
  8
1
 10
20992.6
 20
9650.85
  0
VERTEX
  8
1
 10
20935.8
 20
9669.78
  0
VERTEX
  8
1
 10
20878.4
 20
9687.17
  0
VERTEX
  8
1
 10
20811.2
 20
9705.66
  0
VERTEX
  8
1
 10
20743.5
 20
9722.57
  0
VERTEX
  8
1
 10
20675.5
 20
9737.88
  0
VERTEX
  8
1
 10
20605.9
 20
9751.8
  0
VERTEX
  8
1
 10
20594.1
 20
9754.17
  0
VERTEX
  8
1
 10
20499.1
 20
9785.41
  0
VERTEX
  8
1
 10
20530.6
 20
9881.09
  0
VERTEX
  8
1
 10
21041.4
 20
11434.5
  0
VERTEX
  8
1
 10
21043.8
 20
11442
  0
VERTEX
  8
1
 10
21082.4
 20
11534.1
  0
VERTEX
  8
1
 10
21174.8
 20
11495.6
  0
VERTEX
  8
1
 10
21551.6
 20
11338.6
  0
VERTEX
  8
1
 10
21636.9
 20
11306.5
  0
VERTEX
  8
1
 10
21723.2
 20
11277
  0
VERTEX
  8
1
 10
21810.4
 20
11250.4
  0
VERTEX
  8
1
 10
21898.5
 20
11226.6
  0
VERTEX
  8
1
 10
21987.3
 20
11205.6
  0
VERTEX
  8
1
 10
22076.6
 20
11187.4
  0
VERTEX
  8
1
 10
22166.6
 20
11172.1
  0
VERTEX
  8
1
 10
22255.8
 20
11159.9
  0
VERTEX
  8
1
 10
22344.4
 20
11150.7
  0
VERTEX
  8
1
 10
22433.1
 20
11144.4
  0
VERTEX
  8
1
 10
22522
 20
11141.1
  0
VERTEX
  8
1
 10
22611
 20
11140.6
  0
VERTEX
  8
1
 10
22700
 20
11143.1
  0
VERTEX
  8
1
 10
22788.8
 20
11148.5
  0
VERTEX
  8
1
 10
22877.8
 20
11156.8
  0
VERTEX
  8
1
 10
22917.6
 20
11161.5
  0
VERTEX
  8
1
 10
22977.1
 20
11174.4
  0
VERTEX
  8
1
 10
23039.3
 20
11189.9
  0
VERTEX
  8
1
 10
23101.1
 20
11207.2
  0
VERTEX
  8
1
 10
23162
 20
11226.3
  0
VERTEX
  8
1
 10
23203.6
 20
11241
  0
VERTEX
  8
1
 10
23244.3
 20
11257.4
  0
VERTEX
  8
1
 10
23284.3
 20
11275.4
  0
VERTEX
  8
1
 10
23324
 20
11295.3
  0
VERTEX
  8
1
 10
23366.1
 20
11318
  0
VERTEX
  8
1
 10
23405.2
 20
11342.4
  0
VERTEX
  8
1
 10
23442.8
 20
11369.2
  0
VERTEX
  8
1
 10
23478.8
 20
11398.3
  0
VERTEX
  8
1
 10
23517.3
 20
11433.5
  0
VERTEX
  8
1
 10
23553.9
 20
11470.8
  0
VERTEX
  8
1
 10
23586.2
 20
11507.7
  0
VERTEX
  8
1
 10
23599.6
 20
11606.8
  0
SEQEND
  0
ENDBLK
  0
BLOCK
  8
0
  2
PCE_012
 70
0
 10
0
 20
0
  0
POLYLINE
  8
8
 66
1
  0
VERTEX
  8
8
 10
21312.4
 20
7975.05
  0
VERTEX
  8
8
 10
21312.4
 20
6017.03
  0
SEQEND
  0
POLYLINE
  8
8
 66
1
  0
VERTEX
  8
8
 10
22069.6
 20
8716.82
  0
VERTEX
  8
8
 10
22069.6
 20
6279.23
  0
SEQEND
  0
POLYLINE
  8
8
 66
1
  0
VERTEX
  8
8
 10
22826.9
 20
8709.85
  0
VERTEX
  8
8
 10
22826.9
 20
6331.27
  0
SEQEND
  0
POLYLINE
  8
8
 66
1
  0
VERTEX
  8
8
 10
23584.1
 20
8716.82
  0
VERTEX
  8
8
 10
23584.1
 20
5864.46
  0
SEQEND
  0
POLYLINE
  8
8
 66
1
  0
VERTEX
  8
8
 10
24341.3
 20
8709.85
  0
VERTEX
  8
8
 10
24341.3
 20
5968.13
  0
SEQEND
  0
POLYLINE
  8
8
 66
1
  0
VERTEX
  8
8
 10
25089.9
 20
8709.85
  0
VERTEX
  8
8
 10
25089.3
 20
6071.79
  0
SEQEND
  0
POLYLINE
  8
8
 66
1
  0
VERTEX
  8
8
 10
25855.7
 20
8709.85
  0
VERTEX
  8
8
 10
25855.7
 20
6142.31
  0
SEQEND
  0
POLYLINE
  8
8
 66
1
  0
VERTEX
  8
8
 10
26609
 20
8711.59
  0
VERTEX
  8
8
 10
26609
 20
6129.83
  0
SEQEND
  0
POLYLINE
  8
8
 66
1
  0
VERTEX
  8
8
 10
27370.1
 20
8713.33
  0
VERTEX
  8
8
 10
27370.1
 20
6105.79
  0
SEQEND
  0
POLYLINE
  8
8
 66
1
  0
VERTEX
  8
8
 10
25089.3
 20
6225.72
  0
VERTEX
  8
8
 10
25406.9
 20
6268.99
  0
VERTEX
  8
8
 10
25750.8
 20
6292.98
  0
VERTEX
  8
8
 10
25954.5
 20
6291.08
  0
VERTEX
  8
8
 10
26158.3
 20
6288.39
  0
VERTEX
  8
8
 10
26362
 20
6284.92
  0
VERTEX
  8
8
 10
26565.7
 20
6280.67
  0
VERTEX
  8
8
 10
26766.9
 20
6275.72
  0
VERTEX
  8
8
 10
26968
 20
6269.98
  0
VERTEX
  8
8
 10
27169.1
 20
6263.47
  0
VERTEX
  8
8
 10
27370.1
 20
6256.17
  0
SEQEND
  0
POLYLINE
  8
8
 66
1
  0
VERTEX
  8
8
 10
25089.3
 20
6309.17
  0
VERTEX
  8
8
 10
25396.2
 20
6348.08
  0
VERTEX
  8
8
 10
25483.9
 20
6358.02
  0
VERTEX
  8
8
 10
25549.9
 20
6363.46
  0
VERTEX
  8
8
 10
25615.9
 20
6367.76
  0
VERTEX
  8
8
 10
25682.1
 20
6370.92
  0
VERTEX
  8
8
 10
25748.3
 20
6372.95
  0
VERTEX
  8
8
 10
25953
 20
6371.04
  0
VERTEX
  8
8
 10
26157.6
 20
6368.36
  0
VERTEX
  8
8
 10
26362.3
 20
6364.9
  0
VERTEX
  8
8
 10
26566.9
 20
6360.66
  0
VERTEX
  8
8
 10
26767.7
 20
6355.73
  0
VERTEX
  8
8
 10
26968.6
 20
6350.01
  0
VERTEX
  8
8
 10
27169.4
 20
6343.52
  0
VERTEX
  8
8
 10
27370.1
 20
6336.25
  0
SEQEND
  0
POLYLINE
  8
7
 66
1
  0
VERTEX
  8
7
 10
26046.4
 20
7022.74
  0
VERTEX
  8
7
 10
25431.5
 20
7022.74
  0
SEQEND
  0
TEXT
  8
19
  1
GLUV_XXL
 10
24045.2
 20
6793.48
 50
90
 40
1
  0
TEXT
  8
19
  1
GUV13XXL
 10
24145.2
 20
6793.48
 50
90
 40
1
  0
TEXT
  8
19
  1
XXL
 10
24245.2
 20
6793.48
 50
90
 40
1
  0
TEXT
  8
19
  1
S1
 10
24345.2
 20
6793.48
 50
90
 40
1
  0
POLYLINE
  8
1
 66
1
  0
VERTEX
  8
1
 10
23599.6
 20
5872.21
  0
VERTEX
  8
1
 10
23714.5
 20
5887.8
  0
VERTEX
  8
1
 10
25422.8
 20
6119.55
  0
VERTEX
  8
1
 10
25755.4
 20
6142.98
  0
VERTEX
  8
1
 10
26055.8
 20
6140.43
  0
VERTEX
  8
1
 10
26360.2
 20
6135.31
  0
VERTEX
  8
1
 10
26675.2
 20
6127.98
  0
VERTEX
  8
1
 10
27131.1
 20
6114.69
  0
VERTEX
  8
1
 10
27570
 20
6098.82
  0
VERTEX
  8
1
 10
27733.2
 20
6091.51
  0
SEQEND
  0
POLYLINE
  8
11
 66
1
  0
VERTEX
  8
11
 10
27733.2
 20
6091.51
  0
VERTEX
  8
11
 10
27735.1
 20
6131.47
  0
SEQEND
  0
POLYLINE
  8
1
 66
1
  0
VERTEX
  8
1
 10
27733.2
 20
6091.51
  0
VERTEX
  8
1
 10
28022.8
 20
6078.34
  0
VERTEX
  8
1
 10
28027.3
 20
6078.14
  0
VERTEX
  8
1
 10
28027.3
 20
6178.24
  0
VERTEX
  8
1
 10
28027.3
 20
8714.76
  0
VERTEX
  8
1
 10
21620.7
 20
8714.76
  0
VERTEX
  8
1
 10
21611
 20
8714.76
  0
VERTEX
  8
1
 10
21512.8
 20
8705.26
  0
VERTEX
  8
1
 10
21521
 20
8606.49
  0
VERTEX
  8
1
 10
21525.7
 20
8550.39
  0
VERTEX
  8
1
 10
21527.2
 20
8496.86
  0
VERTEX
  8
1
 10
21525.7
 20
8443.33
  0
VERTEX
  8
1
 10
21521.4
 20
8390.1
  0
VERTEX
  8
1
 10
21514.7
 20
8342.89
  0
VERTEX
  8
1
 10
21505.3
 20
8296.31
  0
VERTEX
  8
1
 10
21493.1
 20
8250.38
  0
VERTEX
  8
1
 10
21479.2
 20
8208.72
  0
VERTEX
  8
1
 10
21467.9
 20
8185.43
  0
VERTEX
  8
1
 10
21453.4
 20
8159.12
  0
VERTEX
  8
1
 10
21437.6
 20
8133.57
  0
VERTEX
  8
1
 10
21420.5
 20
8108.84
  0
VERTEX
  8
1
 10
21402.2
 20
8085
  0
VERTEX
  8
1
 10
21382.8
 20
8062.11
  0
VERTEX
  8
1
 10
21362.2
 20
8040.22
  0
VERTEX
  8
1
 10
21340.4
 20
8019.3
  0
VERTEX
  8
1
 10
21314.2
 20
7996.35
  0
VERTEX
  8
1
 10
21286.9
 20
7974.51
  0
VERTEX
  8
1
 10
21258.6
 20
7953.9
  0
VERTEX
  8
1
 10
21229.4
 20
7934.57
  0
VERTEX
  8
1
 10
21199.4
 20
7916.55
  0
VERTEX
  8
1
 10
21168.7
 20
7899.89
  0
VERTEX
  8
1
 10
21137.2
 20
7884.61
  0
VERTEX
  8
1
 10
21104.5
 20
7870.49
  0
VERTEX
  8
1
 10
21048.9
 20
7848.57
  0
VERTEX
  8
1
 10
20992.6
 20
7828.11
  0
VERTEX
  8
1
 10
20935.8
 20
7809.19
  0
VERTEX
  8
1
 10
20878.4
 20
7791.8
  0
VERTEX
  8
1
 10
20811.2
 20
7773.31
  0
VERTEX
  8
1
 10
20743.5
 20
7756.39
  0
VERTEX
  8
1
 10
20675.5
 20
7741.09
  0
VERTEX
  8
1
 10
20605.9
 20
7727.16
  0
VERTEX
  8
1
 10
20594.1
 20
7724.79
  0
VERTEX
  8
1
 10
20499.1
 20
7693.56
  0
VERTEX
  8
1
 10
20530.6
 20
7597.87
  0
VERTEX
  8
1
 10
21041.4
 20
6044.42
  0
VERTEX
  8
1
 10
21043.8
 20
6036.94
  0
VERTEX
  8
1
 10
21082.4
 20
5944.82
  0
VERTEX
  8
1
 10
21174.8
 20
5983.35
  0
VERTEX
  8
1
 10
21551.6
 20
6140.38
  0
VERTEX
  8
1
 10
21636.9
 20
6172.51
  0
VERTEX
  8
1
 10
21723.2
 20
6201.93
  0
VERTEX
  8
1
 10
21810.4
 20
6228.57
  0
VERTEX
  8
1
 10
21898.5
 20
6252.4
  0
VERTEX
  8
1
 10
21987.3
 20
6273.4
  0
VERTEX
  8
1
 10
22076.6
 20
6291.55
  0
VERTEX
  8
1
 10
22166.6
 20
6306.83
  0
VERTEX
  8
1
 10
22255.8
 20
6319.06
  0
VERTEX
  8
1
 10
22344.4
 20
6328.25
  0
VERTEX
  8
1
 10
22433.1
 20
6334.53
  0
VERTEX
  8
1
 10
22522
 20
6337.9
  0
VERTEX
  8
1
 10
22611
 20
6338.35
  0
VERTEX
  8
1
 10
22700
 20
6335.89
  0
VERTEX
  8
1
 10
22788.8
 20
6330.5
  0
VERTEX
  8
1
 10
22877.8
 20
6322.18
  0
VERTEX
  8
1
 10
22917.6
 20
6317.46
  0
VERTEX
  8
1
 10
22977.1
 20
6304.55
  0
VERTEX
  8
1
 10
23039.3
 20
6289.06
  0
VERTEX
  8
1
 10
23101.1
 20
6271.73
  0
VERTEX
  8
1
 10
23162
 20
6252.64
  0
VERTEX
  8
1
 10
23203.6
 20
6237.94
  0
VERTEX
  8
1
 10
23244.3
 20
6221.61
  0
VERTEX
  8
1
 10
23284.3
 20
6203.61
  0
VERTEX
  8
1
 10
23324
 20
6183.67
  0
VERTEX
  8
1
 10
23366.1
 20
6160.99
  0
VERTEX
  8
1
 10
23405.2
 20
6136.59
  0
VERTEX
  8
1
 10
23442.8
 20
6109.81
  0
VERTEX
  8
1
 10
23478.8
 20
6080.67
  0
VERTEX
  8
1
 10
23517.3
 20
6045.5
  0
VERTEX
  8
1
 10
23553.9
 20
6008.13
  0
VERTEX
  8
1
 10
23586.2
 20
5971.3
  0
VERTEX
  8
1
 10
23599.6
 20
5872.21
  0
SEQEND
  0
ENDBLK
  0
ENDSEC
  0
SECTION
  2
ENTITIES
  0
INSERT
  8
0
  2
PCE_001
 50
0
 10
0
 20
0
  0
INSERT
  8
0
  2
PCE_002
 50
0
 10
0
 20
0
  0
INSERT
  8
0
  2
PCE_003
 50
0
 10
0
 20
0
  0
INSERT
  8
0
  2
PCE_004
 50
0
 10
0
 20
0
  0
INSERT
  8
0
  2
PCE_005
 50
0
 10
0
 20
0
  0
INSERT
  8
0
  2
PCE_006
 50
0
 10
0
 20
0
  0
INSERT
  8
0
  2
PCE_007
 50
0
 10
0
 20
0
  0
INSERT
  8
0
  2
PCE_008
 50
0
 10
0
 20
0
  0
INSERT
  8
0
  2
PCE_009
 50
0
 10
0
 20
0
  0
INSERT
  8
0
  2
PCE_010
 50
0
 10
0
 20
0
  0
INSERT
  8
0
  2
PCE_011
 50
0
 10
0
 20
0
  0
INSERT
  8
0
  2
PCE_012
 50
0
 10
0
 20
0
  0
ENDSEC
  0
EOF
