  0
SECTION
  2
HEADER
  9
$ACADVER
  1
AC1009
  9
$INSBASE
 10
0.000000
 20
0.000000
  9
$LIMMIN
 10
-5000.000000
 20
-5000.000000
  9
$LIMMAX
 10
12000.000000
 20
6000.000000
  9
$EXTMIN
 10
-5000.000000
 20
-5000.000000
  9
$EXTMAX
 10
12000.000000
 20
6000.000000
  9
$ATTMODE
 70
0
  9
$LUNITS
 70
2
  9
$LUPREC
 70
2
  9
$THICKNESS
 40
28.800000
  0
ENDSEC
  0
SECTION
  2
TABLES
  0
TABLE
  2
LTYPE
 70
1
  0
LTYPE
  3
Solid Line
  2
CONTINUOUS
 70
0
 72
65
 73
0
 40
0.000000
  0
ENDTAB
  0
TABLE
  2
LAYER
 70
2
  0
LAYER
  2
SOLDER
 70
0
 62
1
  6
CONTINUOUS
  0
LAYER
  2
SOLDER
 70
0
 62
2
  6
CONTINUOUS
  0
ENDTAB
  0
TABLE
  2
STYLE
 70
1
  0
STYLE
  2
STANDARD
 70
0
 40
0.000000
 41
1.000000
 50
0.000000
 71
0
 42
0.200000
  3
txt
  0
ENDTAB
  0
ENDSEC
  0
SECTION
  2
BLOCKS
  0
BLOCK
  8
0
  2
FIGURE_CIRCLE
 70
0
 10
0.000000
 20
0.000000
  0
CIRCLE
  8
0
 10
0.000000
 20
0.000000
 40
0.500000
  0
ENDBLK
  0
BLOCK
  8
0
  2
FIGURE_SQUARE
 70
0
 10
0.000000
 20
0.000000
  0
POLYLINE
  8
0
 66
1
 70
1
 40
0.000000
 41
0.000000
 39
0.000000
  0
VERTEX
  8
0
 10
-0.500000
 20
-0.500000
 40
0.000000
 41
0.000000
 42
0.000000
  0
VERTEX
  8
0
 10
-0.500000
 20
0.500000
 40
0.000000
 41
0.000000
 42
0.000000
  0
VERTEX
  8
0
 10
0.500000
 20
0.500000
 40
0.000000
 41
0.000000
 42
0.000000
  0
VERTEX
  8
0
 10
0.500000
 20
-0.500000
 40
0.000000
 41
0.000000
 42
0.000000
  0
SEQEND
  0
ENDBLK
  0
BLOCK
  8
0
  2
FIGURE_HEX
 70
0
 10
0.000000
 20
0.000000
  0
POLYLINE
  8
0
 66
1
 70
1
 40
0.000000
 41
0.000000
 39
0.000000
  0
VERTEX
  8
0
 10
-0.500000
 20
0.000000
 40
0.000000
 41
0.000000
 42
0.000000
  0
VERTEX
  8
0
 10
-0.250000
 20
0.500000
 40
0.000000
 41
0.000000
 42
0.000000
  0
VERTEX
  8
0
 10
0.250000
 20
0.500000
 40
0.000000
 41
0.000000
 42
0.000000
  0
VERTEX
  8
0
 10
0.500000
 20
0.000000
 40
0.000000
 41
0.000000
 42
0.000000
  0
VERTEX
  8
0
 10
0.250000
 20
-0.500000
 40
0.000000
 41
0.000000
 42
0.000000
  0
VERTEX
  8
0
 10
-0.250000
 20
-0.500000
 40
0.000000
 41
0.000000
 42
0.000000
  0
SEQEND
  0
ENDBLK
  0
BLOCK
  8
0
  2
FIGURE_OCT
 70
0
 10
0.000000
 20
0.000000
  0
POLYLINE
  8
0
 66
1
 70
1
 40
0.000000
 41
0.000000
 39
0.000000
  0
VERTEX
  8
0
 10
-0.500000
 20
-0.207100
 40
0.000000
 41
0.000000
 42
0.000000
  0
VERTEX
  8
0
 10
-0.500000
 20
0.207100
 40
0.000000
 41
0.000000
 42
0.000000
  0
VERTEX
  8
0
 10
-0.207100
 20
0.500000
 40
0.000000
 41
0.000000
 42
0.000000
  0
VERTEX
  8
0
 10
0.207100
 20
0.500000
 40
0.000000
 41
0.000000
 42
0.000000
  0
VERTEX
  8
0
 10
0.500000
 20
0.207100
 40
0.000000
 41
0.000000
 42
0.000000
  0
VERTEX
  8
0
 10
0.500000
 20
-0.207100
 40
0.000000
 41
0.000000
 42
0.000000
  0
VERTEX
  8
0
 10
0.207100
 20
-0.500000
 40
0.000000
 41
0.000000
 42
0.000000
  0
VERTEX
  8
0
 10
-0.207100
 20
-0.500000
 40
0.000000
 41
0.000000
 42
0.000000
  0
SEQEND
  0
ENDBLK
  0
BLOCK
  8
0
  2
FIGURE_OBLONG
 70
0
 10
0.000000
 20
0.000000
  0
POLYLINE
  8
0
 66
1
 70
1
 40
0.000000
 41
0.000000
 39
0.000000
  0
VERTEX
  8
0
 10
-0.500000
 20
-0.125000
 40
0.000000
 41
0.000000
 42
0.000000
  0
VERTEX
  8
0
 10
-0.500000
 20
0.125000
 40
0.000000
 41
0.000000
 42
0.000000
  0
VERTEX
  8
0
 10
-0.416000
 20
0.375000
 40
0.000000
 41
0.000000
 42
0.000000
  0
VERTEX
  8
0
 10
-0.250000
 20
0.500000
 40
0.000000
 41
0.000000
 42
0.000000
  0
VERTEX
  8
0
 10
0.250000
 20
0.500000
 40
0.000000
 41
0.000000
 42
0.000000
  0
VERTEX
  8
0
 10
0.416000
 20
0.375000
 40
0.000000
 41
0.000000
 42
0.000000
  0
VERTEX
  8
0
 10
0.500000
 20
0.125000
 40
0.000000
 41
0.000000
 42
0.000000
  0
VERTEX
  8
0
 10
0.500000
 20
-0.125000
 40
0.000000
 41
0.000000
 42
0.000000
  0
VERTEX
  8
0
 10
0.416000
 20
-0.375000
 40
0.000000
 41
0.000000
 42
0.000000
  0
VERTEX
  8
0
 10
0.250000
 20
-0.500000
 40
0.000000
 41
0.000000
 42
0.000000
  0
VERTEX
  8
0
 10
-0.250000
 20
-0.500000
 40
0.000000
 41
0.000000
 42
0.000000
  0
VERTEX
  8
0
 10
-0.416000
 20
-0.375000
 40
0.000000
 41
0.000000
 42
0.000000
  0
SEQEND
  0
ENDBLK
  0
BLOCK
  8
0
  2
FIGURE_TRI
 70
0
 10
0.000000
 20
0.000000
  0
POLYLINE
  8
0
 66
1
 70
1
 40
0.000000
 41
0.000000
 39
0.000000
  0
VERTEX
  8
0
 10
-0.500000
 20
-0.500000
 40
0.000000
 41
0.000000
 42
0.000000
  0
VERTEX
  8
0
 10
0.000000
 20
0.500000
 40
0.000000
 41
0.000000
 42
0.000000
  0
VERTEX
  8
0
 10
0.500000
 20
-0.500000
 40
0.000000
 41
0.000000
 42
0.000000
  0
SEQEND
  0
ENDBLK
  0
BLOCK
  8
0
  2
FIGURE_CROSS
 70
0
 10
0.000000
 20
0.000000
  0
POLYLINE
  8
0
 66
1
 70
0
 40
0.000000
 41
0.000000
 39
0.000000
  0
VERTEX
  8
0
 10
-0.500000
 20
0.000000
 40
0.000000
 41
0.000000
 42
0.000000
  0
VERTEX
  8
0
 10
0.500000
 20
0.000000
 40
0.000000
 41
0.000000
 42
0.000000
  0
SEQEND
  0
POLYLINE
  8
0
 66
1
 70
0
 40
0.000000
 41
0.000000
 39
0.000000
  0
VERTEX
  8
0
 10
0.000000
 20
0.500000
 40
0.000000
 41
0.000000
 42
0.000000
  0
VERTEX
  8
0
 10
0.000000
 20
-0.500000
 40
0.000000
 41
0.000000
 42
0.000000
  0
SEQEND
  0
ENDBLK
  0
BLOCK
  8
0
  2
FIGURE_DIAMOND
 70
0
 10
0.000000
 20
0.000000
  0
POLYLINE
  8
0
 66
1
 70
1
 40
0.000000
 41
0.000000
 39
0.000000
  0
VERTEX
  8
0
 10
-0.500000
 20
0.000000
 40
0.000000
 41
0.000000
 42
0.000000
  0
VERTEX
  8
0
 10
0.000000
 20
0.500000
 40
0.000000
 41
0.000000
 42
0.000000
  0
VERTEX
  8
0
 10
0.500000
 20
0.000000
 40
0.000000
 41
0.000000
 42
0.000000
  0
VERTEX
  8
0
 10
0.000000
 20
-0.500000
 40
0.000000
 41
0.000000
 42
0.000000
  0
SEQEND
  0
ENDBLK
  0
ENDSEC
  0
SECTION
  2
ENTITIES
  0
POLYLINE
  8
SOLDER
 66
1
 70
1
 40
0.000000
 41
0.000000
 39
0.000000
  0
VERTEX
  8
SOLDER
 10
2672.500000
 20
2732.500000
 40
0.000000
 41
0.000000
 42
0.000000
  0
VERTEX
  8
SOLDER
 10
2672.500000
 20
2807.500000
 40
0.000000
 41
0.000000
 42
0.000000
  0
VERTEX
  8
SOLDER
 10
2747.500000
 20
2807.500000
 40
0.000000
 41
0.000000
 42
0.000000
  0
VERTEX
  8
SOLDER
 10
2747.500000
 20
2732.500000
 40
0.000000
 41
0.000000
 42
0.000000
  0
SEQEND
  0
CIRCLE
  8
SOLDER
 10
2810.000000
 20
2720.000000
 40
37.500000
  0
CIRCLE
  8
SOLDER
 10
2710.000000
 20
2670.000000
 40
37.500000
  0
CIRCLE
  8
SOLDER
 10
2810.000000
 20
2620.000000
 40
37.500000
  0
CIRCLE
  8
SOLDER
 10
2710.000000
 20
2570.000000
 40
37.500000
  0
CIRCLE
  8
SOLDER
 10
2810.000000
 20
2520.000000
 40
37.500000
  0
CIRCLE
  8
SOLDER
 10
2710.000000
 20
2470.000000
 40
37.500000
  0
CIRCLE
  8
SOLDER
 10
2810.000000
 20
2420.000000
 40
37.500000
  0
CIRCLE
  8
SOLDER
 10
2710.000000
 20
2370.000000
 40
37.500000
  0
CIRCLE
  8
SOLDER
 10
2810.000000
 20
2320.000000
 40
37.500000
  0
CIRCLE
  8
SOLDER
 10
2710.000000
 20
2270.000000
 40
37.500000
  0
CIRCLE
  8
SOLDER
 10
2810.000000
 20
2220.000000
 40
37.500000
  0
CIRCLE
  8
SOLDER
 10
2710.000000
 20
2170.000000
 40
37.500000
  0
CIRCLE
  8
SOLDER
 10
2810.000000
 20
2120.000000
 40
37.500000
  0
CIRCLE
  8
SOLDER
 10
2710.000000
 20
2070.000000
 40
37.500000
  0
CIRCLE
  8
SOLDER
 10
2810.000000
 20
2020.000000
 40
37.500000
  0
CIRCLE
  8
SOLDER
 10
2710.000000
 20
1970.000000
 40
37.500000
  0
CIRCLE
  8
SOLDER
 10
2810.000000
 20
1920.000000
 40
37.500000
  0
CIRCLE
  8
SOLDER
 10
2710.000000
 20
1870.000000
 40
37.500000
  0
CIRCLE
  8
SOLDER
 10
2810.000000
 20
1820.000000
 40
37.500000
  0
POLYLINE
  8
SOLDER
 66
1
 70
1
 40
0.000000
 41
0.000000
 39
0.000000
  0
VERTEX
  8
SOLDER
 10
2452.500000
 20
2732.500000
 40
0.000000
 41
0.000000
 42
0.000000
  0
VERTEX
  8
SOLDER
 10
2452.500000
 20
2807.500000
 40
0.000000
 41
0.000000
 42
0.000000
  0
VERTEX
  8
SOLDER
 10
2527.500000
 20
2807.500000
 40
0.000000
 41
0.000000
 42
0.000000
  0
VERTEX
  8
SOLDER
 10
2527.500000
 20
2732.500000
 40
0.000000
 41
0.000000
 42
0.000000
  0
SEQEND
  0
CIRCLE
  8
SOLDER
 10
2590.000000
 20
2720.000000
 40
37.500000
  0
CIRCLE
  8
SOLDER
 10
2490.000000
 20
2670.000000
 40
37.500000
  0
CIRCLE
  8
SOLDER
 10
2590.000000
 20
2620.000000
 40
37.500000
  0
CIRCLE
  8
SOLDER
 10
2490.000000
 20
2570.000000
 40
37.500000
  0
CIRCLE
  8
SOLDER
 10
2590.000000
 20
2520.000000
 40
37.500000
  0
CIRCLE
  8
SOLDER
 10
2490.000000
 20
2470.000000
 40
37.500000
  0
CIRCLE
  8
SOLDER
 10
2590.000000
 20
2420.000000
 40
37.500000
  0
CIRCLE
  8
SOLDER
 10
2490.000000
 20
2370.000000
 40
37.500000
  0
CIRCLE
  8
SOLDER
 10
2590.000000
 20
2320.000000
 40
37.500000
  0
CIRCLE
  8
SOLDER
 10
2490.000000
 20
2270.000000
 40
37.500000
  0
CIRCLE
  8
SOLDER
 10
2590.000000
 20
2220.000000
 40
37.500000
  0
CIRCLE
  8
SOLDER
 10
2490.000000
 20
2170.000000
 40
37.500000
  0
CIRCLE
  8
SOLDER
 10
2590.000000
 20
2120.000000
 40
37.500000
  0
CIRCLE
  8
SOLDER
 10
2490.000000
 20
2070.000000
 40
37.500000
  0
CIRCLE
  8
SOLDER
 10
2590.000000
 20
2020.000000
 40
37.500000
  0
CIRCLE
  8
SOLDER
 10
2490.000000
 20
1970.000000
 40
37.500000
  0
CIRCLE
  8
SOLDER
 10
2590.000000
 20
1920.000000
 40
37.500000
  0
CIRCLE
  8
SOLDER
 10
2490.000000
 20
1870.000000
 40
37.500000
  0
CIRCLE
  8
SOLDER
 10
2590.000000
 20
1820.000000
 40
37.500000
  0
POLYLINE
  8
SOLDER
 66
1
 70
1
 40
0.000000
 41
0.000000
 39
0.000000
  0
VERTEX
  8
SOLDER
 10
2847.500000
 20
587.500000
 40
0.000000
 41
0.000000
 42
0.000000
  0
VERTEX
  8
SOLDER
 10
2847.500000
 20
512.500000
 40
0.000000
 41
0.000000
 42
0.000000
  0
VERTEX
  8
SOLDER
 10
2772.500000
 20
512.500000
 40
0.000000
 41
0.000000
 42
0.000000
  0
VERTEX
  8
SOLDER
 10
2772.500000
 20
587.500000
 40
0.000000
 41
0.000000
 42
0.000000
  0
SEQEND
  0
CIRCLE
  8
SOLDER
 10
2710.000000
 20
600.000000
 40
37.500000
  0
CIRCLE
  8
SOLDER
 10
2810.000000
 20
650.000000
 40
37.500000
  0
CIRCLE
  8
SOLDER
 10
2710.000000
 20
700.000000
 40
37.500000
  0
CIRCLE
  8
SOLDER
 10
2810.000000
 20
750.000000
 40
37.500000
  0
CIRCLE
  8
SOLDER
 10
2710.000000
 20
800.000000
 40
37.500000
  0
CIRCLE
  8
SOLDER
 10
2810.000000
 20
850.000000
 40
37.500000
  0
CIRCLE
  8
SOLDER
 10
2710.000000
 20
900.000000
 40
37.500000
  0
CIRCLE
  8
SOLDER
 10
2810.000000
 20
950.000000
 40
37.500000
  0
CIRCLE
  8
SOLDER
 10
2710.000000
 20
1000.000000
 40
37.500000
  0
CIRCLE
  8
SOLDER
 10
2810.000000
 20
1050.000000
 40
37.500000
  0
CIRCLE
  8
SOLDER
 10
2710.000000
 20
1100.000000
 40
37.500000
  0
CIRCLE
  8
SOLDER
 10
2810.000000
 20
1150.000000
 40
37.500000
  0
CIRCLE
  8
SOLDER
 10
2710.000000
 20
1200.000000
 40
37.500000
  0
CIRCLE
  8
SOLDER
 10
2810.000000
 20
1250.000000
 40
37.500000
  0
CIRCLE
  8
SOLDER
 10
2710.000000
 20
1300.000000
 40
37.500000
  0
CIRCLE
  8
SOLDER
 10
2810.000000
 20
1350.000000
 40
37.500000
  0
CIRCLE
  8
SOLDER
 10
2710.000000
 20
1400.000000
 40
37.500000
  0
CIRCLE
  8
SOLDER
 10
2810.000000
 20
1450.000000
 40
37.500000
  0
CIRCLE
  8
SOLDER
 10
2710.000000
 20
1500.000000
 40
37.500000
  0
POLYLINE
  8
SOLDER
 66
1
 70
1
 40
0.000000
 41
0.000000
 39
0.000000
  0
VERTEX
  8
SOLDER
 10
2627.500000
 20
587.500000
 40
0.000000
 41
0.000000
 42
0.000000
  0
VERTEX
  8
SOLDER
 10
2627.500000
 20
512.500000
 40
0.000000
 41
0.000000
 42
0.000000
  0
VERTEX
  8
SOLDER
 10
2552.500000
 20
512.500000
 40
0.000000
 41
0.000000
 42
0.000000
  0
VERTEX
  8
SOLDER
 10
2552.500000
 20
587.500000
 40
0.000000
 41
0.000000
 42
0.000000
  0
SEQEND
  0
CIRCLE
  8
SOLDER
 10
2490.000000
 20
600.000000
 40
37.500000
  0
CIRCLE
  8
SOLDER
 10
2590.000000
 20
650.000000
 40
37.500000
  0
CIRCLE
  8
SOLDER
 10
2490.000000
 20
700.000000
 40
37.500000
  0
CIRCLE
  8
SOLDER
 10
2590.000000
 20
750.000000
 40
37.500000
  0
CIRCLE
  8
SOLDER
 10
2490.000000
 20
800.000000
 40
37.500000
  0
CIRCLE
  8
SOLDER
 10
2590.000000
 20
850.000000
 40
37.500000
  0
CIRCLE
  8
SOLDER
 10
2490.000000
 20
900.000000
 40
37.500000
  0
CIRCLE
  8
SOLDER
 10
2590.000000
 20
950.000000
 40
37.500000
  0
CIRCLE
  8
SOLDER
 10
2490.000000
 20
1000.000000
 40
37.500000
  0
CIRCLE
  8
SOLDER
 10
2590.000000
 20
1050.000000
 40
37.500000
  0
CIRCLE
  8
SOLDER
 10
2490.000000
 20
1100.000000
 40
37.500000
  0
CIRCLE
  8
SOLDER
 10
2590.000000
 20
1150.000000
 40
37.500000
  0
CIRCLE
  8
SOLDER
 10
2490.000000
 20
1200.000000
 40
37.500000
  0
CIRCLE
  8
SOLDER
 10
2590.000000
 20
1250.000000
 40
37.500000
  0
CIRCLE
  8
SOLDER
 10
2490.000000
 20
1300.000000
 40
37.500000
  0
CIRCLE
  8
SOLDER
 10
2590.000000
 20
1350.000000
 40
37.500000
  0
CIRCLE
  8
SOLDER
 10
2490.000000
 20
1400.000000
 40
37.500000
  0
CIRCLE
  8
SOLDER
 10
2590.000000
 20
1450.000000
 40
37.500000
  0
CIRCLE
  8
SOLDER
 10
2490.000000
 20
1500.000000
 40
37.500000
  0
POLYLINE
  8
SOLDER
 66
1
 70
1
 40
0.000000
 41
0.000000
 39
0.000000
  0
VERTEX
  8
SOLDER
 10
287.500000
 20
2710.000000
 40
0.000000
 41
0.000000
 42
0.000000
  0
VERTEX
  8
SOLDER
 10
287.500000
 20
2740.000000
 40
0.000000
 41
0.000000
 42
0.000000
  0
VERTEX
  8
SOLDER
 10
342.500000
 20
2740.000000
 40
0.000000
 41
0.000000
 42
0.000000
  0
VERTEX
  8
SOLDER
 10
342.500000
 20
2710.000000
 40
0.000000
 41
0.000000
 42
0.000000
  0
SEQEND
  0
POLYLINE
  8
SOLDER
 66
1
 70
1
 40
0.000000
 41
0.000000
 39
0.000000
  0
VERTEX
  8
SOLDER
 10
287.500000
 20
2660.000000
 40
0.000000
 41
0.000000
 42
0.000000
  0
VERTEX
  8
SOLDER
 10
287.500000
 20
2690.000000
 40
0.000000
 41
0.000000
 42
0.000000
  0
VERTEX
  8
SOLDER
 10
342.500000
 20
2690.000000
 40
0.000000
 41
0.000000
 42
0.000000
  0
VERTEX
  8
SOLDER
 10
342.500000
 20
2660.000000
 40
0.000000
 41
0.000000
 42
0.000000
  0
SEQEND
  0
POLYLINE
  8
SOLDER
 66
1
 70
1
 40
0.000000
 41
0.000000
 39
0.000000
  0
VERTEX
  8
SOLDER
 10
287.500000
 20
2610.000000
 40
0.000000
 41
0.000000
 42
0.000000
  0
VERTEX
  8
SOLDER
 10
287.500000
 20
2640.000000
 40
0.000000
 41
0.000000
 42
0.000000
  0
VERTEX
  8
SOLDER
 10
342.500000
 20
2640.000000
 40
0.000000
 41
0.000000
 42
0.000000
  0
VERTEX
  8
SOLDER
 10
342.500000
 20
2610.000000
 40
0.000000
 41
0.000000
 42
0.000000
  0
SEQEND
  0
POLYLINE
  8
SOLDER
 66
1
 70
1
 40
0.000000
 41
0.000000
 39
0.000000
  0
VERTEX
  8
SOLDER
 10
287.500000
 20
2560.000000
 40
0.000000
 41
0.000000
 42
0.000000
  0
VERTEX
  8
SOLDER
 10
287.500000
 20
2590.000000
 40
0.000000
 41
0.000000
 42
0.000000
  0
VERTEX
  8
SOLDER
 10
342.500000
 20
2590.000000
 40
0.000000
 41
0.000000
 42
0.000000
  0
VERTEX
  8
SOLDER
 10
342.500000
 20
2560.000000
 40
0.000000
 41
0.000000
 42
0.000000
  0
SEQEND
  0
POLYLINE
  8
SOLDER
 66
1
 70
1
 40
0.000000
 41
0.000000
 39
0.000000
  0
VERTEX
  8
SOLDER
 10
287.500000
 20
2510.000000
 40
0.000000
 41
0.000000
 42
0.000000
  0
VERTEX
  8
SOLDER
 10
287.500000
 20
2540.000000
 40
0.000000
 41
0.000000
 42
0.000000
  0
VERTEX
  8
SOLDER
 10
342.500000
 20
2540.000000
 40
0.000000
 41
0.000000
 42
0.000000
  0
VERTEX
  8
SOLDER
 10
342.500000
 20
2510.000000
 40
0.000000
 41
0.000000
 42
0.000000
  0
SEQEND
  0
POLYLINE
  8
SOLDER
 66
1
 70
1
 40
0.000000
 41
0.000000
 39
0.000000
  0
VERTEX
  8
SOLDER
 10
287.500000
 20
2460.000000
 40
0.000000
 41
0.000000
 42
0.000000
  0
VERTEX
  8
SOLDER
 10
287.500000
 20
2490.000000
 40
0.000000
 41
0.000000
 42
0.000000
  0
VERTEX
  8
SOLDER
 10
342.500000
 20
2490.000000
 40
0.000000
 41
0.000000
 42
0.000000
  0
VERTEX
  8
SOLDER
 10
342.500000
 20
2460.000000
 40
0.000000
 41
0.000000
 42
0.000000
  0
SEQEND
  0
POLYLINE
  8
SOLDER
 66
1
 70
1
 40
0.000000
 41
0.000000
 39
0.000000
  0
VERTEX
  8
SOLDER
 10
287.500000
 20
2410.000000
 40
0.000000
 41
0.000000
 42
0.000000
  0
VERTEX
  8
SOLDER
 10
287.500000
 20
2440.000000
 40
0.000000
 41
0.000000
 42
0.000000
  0
VERTEX
  8
SOLDER
 10
342.500000
 20
2440.000000
 40
0.000000
 41
0.000000
 42
0.000000
  0
VERTEX
  8
SOLDER
 10
342.500000
 20
2410.000000
 40
0.000000
 41
0.000000
 42
0.000000
  0
SEQEND
  0
POLYLINE
  8
SOLDER
 66
1
 70
1
 40
0.000000
 41
0.000000
 39
0.000000
  0
VERTEX
  8
SOLDER
 10
287.500000
 20
2360.000000
 40
0.000000
 41
0.000000
 42
0.000000
  0
VERTEX
  8
SOLDER
 10
287.500000
 20
2390.000000
 40
0.000000
 41
0.000000
 42
0.000000
  0
VERTEX
  8
SOLDER
 10
342.500000
 20
2390.000000
 40
0.000000
 41
0.000000
 42
0.000000
  0
VERTEX
  8
SOLDER
 10
342.500000
 20
2360.000000
 40
0.000000
 41
0.000000
 42
0.000000
  0
SEQEND
  0
POLYLINE
  8
SOLDER
 66
1
 70
1
 40
0.000000
 41
0.000000
 39
0.000000
  0
VERTEX
  8
SOLDER
 10
287.500000
 20
2310.000000
 40
0.000000
 41
0.000000
 42
0.000000
  0
VERTEX
  8
SOLDER
 10
287.500000
 20
2340.000000
 40
0.000000
 41
0.000000
 42
0.000000
  0
VERTEX
  8
SOLDER
 10
342.500000
 20
2340.000000
 40
0.000000
 41
0.000000
 42
0.000000
  0
VERTEX
  8
SOLDER
 10
342.500000
 20
2310.000000
 40
0.000000
 41
0.000000
 42
0.000000
  0
SEQEND
  0
POLYLINE
  8
SOLDER
 66
1
 70
1
 40
0.000000
 41
0.000000
 39
0.000000
  0
VERTEX
  8
SOLDER
 10
287.500000
 20
2260.000000
 40
0.000000
 41
0.000000
 42
0.000000
  0
VERTEX
  8
SOLDER
 10
287.500000
 20
2290.000000
 40
0.000000
 41
0.000000
 42
0.000000
  0
VERTEX
  8
SOLDER
 10
342.500000
 20
2290.000000
 40
0.000000
 41
0.000000
 42
0.000000
  0
VERTEX
  8
SOLDER
 10
342.500000
 20
2260.000000
 40
0.000000
 41
0.000000
 42
0.000000
  0
SEQEND
  0
POLYLINE
  8
SOLDER
 66
1
 70
1
 40
0.000000
 41
0.000000
 39
0.000000
  0
VERTEX
  8
SOLDER
 10
657.500000
 20
2710.000000
 40
0.000000
 41
0.000000
 42
0.000000
  0
VERTEX
  8
SOLDER
 10
657.500000
 20
2740.000000
 40
0.000000
 41
0.000000
 42
0.000000
  0
VERTEX
  8
SOLDER
 10
712.500000
 20
2740.000000
 40
0.000000
 41
0.000000
 42
0.000000
  0
VERTEX
  8
SOLDER
 10
712.500000
 20
2710.000000
 40
0.000000
 41
0.000000
 42
0.000000
  0
SEQEND
  0
POLYLINE
  8
SOLDER
 66
1
 70
1
 40
0.000000
 41
0.000000
 39
0.000000
  0
VERTEX
  8
SOLDER
 10
657.500000
 20
2660.000000
 40
0.000000
 41
0.000000
 42
0.000000
  0
VERTEX
  8
SOLDER
 10
657.500000
 20
2690.000000
 40
0.000000
 41
0.000000
 42
0.000000
  0
VERTEX
  8
SOLDER
 10
712.500000
 20
2690.000000
 40
0.000000
 41
0.000000
 42
0.000000
  0
VERTEX
  8
SOLDER
 10
712.500000
 20
2660.000000
 40
0.000000
 41
0.000000
 42
0.000000
  0
SEQEND
  0
POLYLINE
  8
SOLDER
 66
1
 70
1
 40
0.000000
 41
0.000000
 39
0.000000
  0
VERTEX
  8
SOLDER
 10
657.500000
 20
2610.000000
 40
0.000000
 41
0.000000
 42
0.000000
  0
VERTEX
  8
SOLDER
 10
657.500000
 20
2640.000000
 40
0.000000
 41
0.000000
 42
0.000000
  0
VERTEX
  8
SOLDER
 10
712.500000
 20
2640.000000
 40
0.000000
 41
0.000000
 42
0.000000
  0
VERTEX
  8
SOLDER
 10
712.500000
 20
2610.000000
 40
0.000000
 41
0.000000
 42
0.000000
  0
SEQEND
  0
POLYLINE
  8
SOLDER
 66
1
 70
1
 40
0.000000
 41
0.000000
 39
0.000000
  0
VERTEX
  8
SOLDER
 10
657.500000
 20
2560.000000
 40
0.000000
 41
0.000000
 42
0.000000
  0
VERTEX
  8
SOLDER
 10
657.500000
 20
2590.000000
 40
0.000000
 41
0.000000
 42
0.000000
  0
VERTEX
  8
SOLDER
 10
712.500000
 20
2590.000000
 40
0.000000
 41
0.000000
 42
0.000000
  0
VERTEX
  8
SOLDER
 10
712.500000
 20
2560.000000
 40
0.000000
 41
0.000000
 42
0.000000
  0
SEQEND
  0
POLYLINE
  8
SOLDER
 66
1
 70
1
 40
0.000000
 41
0.000000
 39
0.000000
  0
VERTEX
  8
SOLDER
 10
657.500000
 20
2510.000000
 40
0.000000
 41
0.000000
 42
0.000000
  0
VERTEX
  8
SOLDER
 10
657.500000
 20
2540.000000
 40
0.000000
 41
0.000000
 42
0.000000
  0
VERTEX
  8
SOLDER
 10
712.500000
 20
2540.000000
 40
0.000000
 41
0.000000
 42
0.000000
  0
VERTEX
  8
SOLDER
 10
712.500000
 20
2510.000000
 40
0.000000
 41
0.000000
 42
0.000000
  0
SEQEND
  0
POLYLINE
  8
SOLDER
 66
1
 70
1
 40
0.000000
 41
0.000000
 39
0.000000
  0
VERTEX
  8
SOLDER
 10
657.500000
 20
2460.000000
 40
0.000000
 41
0.000000
 42
0.000000
  0
VERTEX
  8
SOLDER
 10
657.500000
 20
2490.000000
 40
0.000000
 41
0.000000
 42
0.000000
  0
VERTEX
  8
SOLDER
 10
712.500000
 20
2490.000000
 40
0.000000
 41
0.000000
 42
0.000000
  0
VERTEX
  8
SOLDER
 10
712.500000
 20
2460.000000
 40
0.000000
 41
0.000000
 42
0.000000
  0
SEQEND
  0
POLYLINE
  8
SOLDER
 66
1
 70
1
 40
0.000000
 41
0.000000
 39
0.000000
  0
VERTEX
  8
SOLDER
 10
657.500000
 20
2410.000000
 40
0.000000
 41
0.000000
 42
0.000000
  0
VERTEX
  8
SOLDER
 10
657.500000
 20
2440.000000
 40
0.000000
 41
0.000000
 42
0.000000
  0
VERTEX
  8
SOLDER
 10
712.500000
 20
2440.000000
 40
0.000000
 41
0.000000
 42
0.000000
  0
VERTEX
  8
SOLDER
 10
712.500000
 20
2410.000000
 40
0.000000
 41
0.000000
 42
0.000000
  0
SEQEND
  0
POLYLINE
  8
SOLDER
 66
1
 70
1
 40
0.000000
 41
0.000000
 39
0.000000
  0
VERTEX
  8
SOLDER
 10
657.500000
 20
2360.000000
 40
0.000000
 41
0.000000
 42
0.000000
  0
VERTEX
  8
SOLDER
 10
657.500000
 20
2390.000000
 40
0.000000
 41
0.000000
 42
0.000000
  0
VERTEX
  8
SOLDER
 10
712.500000
 20
2390.000000
 40
0.000000
 41
0.000000
 42
0.000000
  0
VERTEX
  8
SOLDER
 10
712.500000
 20
2360.000000
 40
0.000000
 41
0.000000
 42
0.000000
  0
SEQEND
  0
POLYLINE
  8
SOLDER
 66
1
 70
1
 40
0.000000
 41
0.000000
 39
0.000000
  0
VERTEX
  8
SOLDER
 10
657.500000
 20
2310.000000
 40
0.000000
 41
0.000000
 42
0.000000
  0
VERTEX
  8
SOLDER
 10
657.500000
 20
2340.000000
 40
0.000000
 41
0.000000
 42
0.000000
  0
VERTEX
  8
SOLDER
 10
712.500000
 20
2340.000000
 40
0.000000
 41
0.000000
 42
0.000000
  0
VERTEX
  8
SOLDER
 10
712.500000
 20
2310.000000
 40
0.000000
 41
0.000000
 42
0.000000
  0
SEQEND
  0
POLYLINE
  8
SOLDER
 66
1
 70
1
 40
0.000000
 41
0.000000
 39
0.000000
  0
VERTEX
  8
SOLDER
 10
657.500000
 20
2260.000000
 40
0.000000
 41
0.000000
 42
0.000000
  0
VERTEX
  8
SOLDER
 10
657.500000
 20
2290.000000
 40
0.000000
 41
0.000000
 42
0.000000
  0
VERTEX
  8
SOLDER
 10
712.500000
 20
2290.000000
 40
0.000000
 41
0.000000
 42
0.000000
  0
VERTEX
  8
SOLDER
 10
712.500000
 20
2260.000000
 40
0.000000
 41
0.000000
 42
0.000000
  0
SEQEND
  0
POLYLINE
  8
SOLDER
 66
1
 70
1
 40
0.000000
 41
0.000000
 39
0.000000
  0
VERTEX
  8
SOLDER
 10
712.500000
 20
1140.000000
 40
0.000000
 41
0.000000
 42
0.000000
  0
VERTEX
  8
SOLDER
 10
712.500000
 20
1110.000000
 40
0.000000
 41
0.000000
 42
0.000000
  0
VERTEX
  8
SOLDER
 10
657.500000
 20
1110.000000
 40
0.000000
 41
0.000000
 42
0.000000
  0
VERTEX
  8
SOLDER
 10
657.500000
 20
1140.000000
 40
0.000000
 41
0.000000
 42
0.000000
  0
SEQEND
  0
POLYLINE
  8
SOLDER
 66
1
 70
1
 40
0.000000
 41
0.000000
 39
0.000000
  0
VERTEX
  8
SOLDER
 10
712.500000
 20
1190.000000
 40
0.000000
 41
0.000000
 42
0.000000
  0
VERTEX
  8
SOLDER
 10
712.500000
 20
1160.000000
 40
0.000000
 41
0.000000
 42
0.000000
  0
VERTEX
  8
SOLDER
 10
657.500000
 20
1160.000000
 40
0.000000
 41
0.000000
 42
0.000000
  0
VERTEX
  8
SOLDER
 10
657.500000
 20
1190.000000
 40
0.000000
 41
0.000000
 42
0.000000
  0
SEQEND
  0
POLYLINE
  8
SOLDER
 66
1
 70
1
 40
0.000000
 41
0.000000
 39
0.000000
  0
VERTEX
  8
SOLDER
 10
712.500000
 20
1240.000000
 40
0.000000
 41
0.000000
 42
0.000000
  0
VERTEX
  8
SOLDER
 10
712.500000
 20
1210.000000
 40
0.000000
 41
0.000000
 42
0.000000
  0
VERTEX
  8
SOLDER
 10
657.500000
 20
1210.000000
 40
0.000000
 41
0.000000
 42
0.000000
  0
VERTEX
  8
SOLDER
 10
657.500000
 20
1240.000000
 40
0.000000
 41
0.000000
 42
0.000000
  0
SEQEND
  0
POLYLINE
  8
SOLDER
 66
1
 70
1
 40
0.000000
 41
0.000000
 39
0.000000
  0
VERTEX
  8
SOLDER
 10
712.500000
 20
1290.000000
 40
0.000000
 41
0.000000
 42
0.000000
  0
VERTEX
  8
SOLDER
 10
712.500000
 20
1260.000000
 40
0.000000
 41
0.000000
 42
0.000000
  0
VERTEX
  8
SOLDER
 10
657.500000
 20
1260.000000
 40
0.000000
 41
0.000000
 42
0.000000
  0
VERTEX
  8
SOLDER
 10
657.500000
 20
1290.000000
 40
0.000000
 41
0.000000
 42
0.000000
  0
SEQEND
  0
POLYLINE
  8
SOLDER
 66
1
 70
1
 40
0.000000
 41
0.000000
 39
0.000000
  0
VERTEX
  8
SOLDER
 10
712.500000
 20
1340.000000
 40
0.000000
 41
0.000000
 42
0.000000
  0
VERTEX
  8
SOLDER
 10
712.500000
 20
1310.000000
 40
0.000000
 41
0.000000
 42
0.000000
  0
VERTEX
  8
SOLDER
 10
657.500000
 20
1310.000000
 40
0.000000
 41
0.000000
 42
0.000000
  0
VERTEX
  8
SOLDER
 10
657.500000
 20
1340.000000
 40
0.000000
 41
0.000000
 42
0.000000
  0
SEQEND
  0
POLYLINE
  8
SOLDER
 66
1
 70
1
 40
0.000000
 41
0.000000
 39
0.000000
  0
VERTEX
  8
SOLDER
 10
712.500000
 20
1390.000000
 40
0.000000
 41
0.000000
 42
0.000000
  0
VERTEX
  8
SOLDER
 10
712.500000
 20
1360.000000
 40
0.000000
 41
0.000000
 42
0.000000
  0
VERTEX
  8
SOLDER
 10
657.500000
 20
1360.000000
 40
0.000000
 41
0.000000
 42
0.000000
  0
VERTEX
  8
SOLDER
 10
657.500000
 20
1390.000000
 40
0.000000
 41
0.000000
 42
0.000000
  0
SEQEND
  0
POLYLINE
  8
SOLDER
 66
1
 70
1
 40
0.000000
 41
0.000000
 39
0.000000
  0
VERTEX
  8
SOLDER
 10
712.500000
 20
1440.000000
 40
0.000000
 41
0.000000
 42
0.000000
  0
VERTEX
  8
SOLDER
 10
712.500000
 20
1410.000000
 40
0.000000
 41
0.000000
 42
0.000000
  0
VERTEX
  8
SOLDER
 10
657.500000
 20
1410.000000
 40
0.000000
 41
0.000000
 42
0.000000
  0
VERTEX
  8
SOLDER
 10
657.500000
 20
1440.000000
 40
0.000000
 41
0.000000
 42
0.000000
  0
SEQEND
  0
POLYLINE
  8
SOLDER
 66
1
 70
1
 40
0.000000
 41
0.000000
 39
0.000000
  0
VERTEX
  8
SOLDER
 10
712.500000
 20
1490.000000
 40
0.000000
 41
0.000000
 42
0.000000
  0
VERTEX
  8
SOLDER
 10
712.500000
 20
1460.000000
 40
0.000000
 41
0.000000
 42
0.000000
  0
VERTEX
  8
SOLDER
 10
657.500000
 20
1460.000000
 40
0.000000
 41
0.000000
 42
0.000000
  0
VERTEX
  8
SOLDER
 10
657.500000
 20
1490.000000
 40
0.000000
 41
0.000000
 42
0.000000
  0
SEQEND
  0
POLYLINE
  8
SOLDER
 66
1
 70
1
 40
0.000000
 41
0.000000
 39
0.000000
  0
VERTEX
  8
SOLDER
 10
712.500000
 20
1540.000000
 40
0.000000
 41
0.000000
 42
0.000000
  0
VERTEX
  8
SOLDER
 10
712.500000
 20
1510.000000
 40
0.000000
 41
0.000000
 42
0.000000
  0
VERTEX
  8
SOLDER
 10
657.500000
 20
1510.000000
 40
0.000000
 41
0.000000
 42
0.000000
  0
VERTEX
  8
SOLDER
 10
657.500000
 20
1540.000000
 40
0.000000
 41
0.000000
 42
0.000000
  0
SEQEND
  0
POLYLINE
  8
SOLDER
 66
1
 70
1
 40
0.000000
 41
0.000000
 39
0.000000
  0
VERTEX
  8
SOLDER
 10
712.500000
 20
1590.000000
 40
0.000000
 41
0.000000
 42
0.000000
  0
VERTEX
  8
SOLDER
 10
712.500000
 20
1560.000000
 40
0.000000
 41
0.000000
 42
0.000000
  0
VERTEX
  8
SOLDER
 10
657.500000
 20
1560.000000
 40
0.000000
 41
0.000000
 42
0.000000
  0
VERTEX
  8
SOLDER
 10
657.500000
 20
1590.000000
 40
0.000000
 41
0.000000
 42
0.000000
  0
SEQEND
  0
POLYLINE
  8
SOLDER
 66
1
 70
1
 40
0.000000
 41
0.000000
 39
0.000000
  0
VERTEX
  8
SOLDER
 10
342.500000
 20
1140.000000
 40
0.000000
 41
0.000000
 42
0.000000
  0
VERTEX
  8
SOLDER
 10
342.500000
 20
1110.000000
 40
0.000000
 41
0.000000
 42
0.000000
  0
VERTEX
  8
SOLDER
 10
287.500000
 20
1110.000000
 40
0.000000
 41
0.000000
 42
0.000000
  0
VERTEX
  8
SOLDER
 10
287.500000
 20
1140.000000
 40
0.000000
 41
0.000000
 42
0.000000
  0
SEQEND
  0
POLYLINE
  8
SOLDER
 66
1
 70
1
 40
0.000000
 41
0.000000
 39
0.000000
  0
VERTEX
  8
SOLDER
 10
342.500000
 20
1190.000000
 40
0.000000
 41
0.000000
 42
0.000000
  0
VERTEX
  8
SOLDER
 10
342.500000
 20
1160.000000
 40
0.000000
 41
0.000000
 42
0.000000
  0
VERTEX
  8
SOLDER
 10
287.500000
 20
1160.000000
 40
0.000000
 41
0.000000
 42
0.000000
  0
VERTEX
  8
SOLDER
 10
287.500000
 20
1190.000000
 40
0.000000
 41
0.000000
 42
0.000000
  0
SEQEND
  0
POLYLINE
  8
SOLDER
 66
1
 70
1
 40
0.000000
 41
0.000000
 39
0.000000
  0
VERTEX
  8
SOLDER
 10
342.500000
 20
1240.000000
 40
0.000000
 41
0.000000
 42
0.000000
  0
VERTEX
  8
SOLDER
 10
342.500000
 20
1210.000000
 40
0.000000
 41
0.000000
 42
0.000000
  0
VERTEX
  8
SOLDER
 10
287.500000
 20
1210.000000
 40
0.000000
 41
0.000000
 42
0.000000
  0
VERTEX
  8
SOLDER
 10
287.500000
 20
1240.000000
 40
0.000000
 41
0.000000
 42
0.000000
  0
SEQEND
  0
POLYLINE
  8
SOLDER
 66
1
 70
1
 40
0.000000
 41
0.000000
 39
0.000000
  0
VERTEX
  8
SOLDER
 10
342.500000
 20
1290.000000
 40
0.000000
 41
0.000000
 42
0.000000
  0
VERTEX
  8
SOLDER
 10
342.500000
 20
1260.000000
 40
0.000000
 41
0.000000
 42
0.000000
  0
VERTEX
  8
SOLDER
 10
287.500000
 20
1260.000000
 40
0.000000
 41
0.000000
 42
0.000000
  0
VERTEX
  8
SOLDER
 10
287.500000
 20
1290.000000
 40
0.000000
 41
0.000000
 42
0.000000
  0
SEQEND
  0
POLYLINE
  8
SOLDER
 66
1
 70
1
 40
0.000000
 41
0.000000
 39
0.000000
  0
VERTEX
  8
SOLDER
 10
342.500000
 20
1340.000000
 40
0.000000
 41
0.000000
 42
0.000000
  0
VERTEX
  8
SOLDER
 10
342.500000
 20
1310.000000
 40
0.000000
 41
0.000000
 42
0.000000
  0
VERTEX
  8
SOLDER
 10
287.500000
 20
1310.000000
 40
0.000000
 41
0.000000
 42
0.000000
  0
VERTEX
  8
SOLDER
 10
287.500000
 20
1340.000000
 40
0.000000
 41
0.000000
 42
0.000000
  0
SEQEND
  0
POLYLINE
  8
SOLDER
 66
1
 70
1
 40
0.000000
 41
0.000000
 39
0.000000
  0
VERTEX
  8
SOLDER
 10
342.500000
 20
1390.000000
 40
0.000000
 41
0.000000
 42
0.000000
  0
VERTEX
  8
SOLDER
 10
342.500000
 20
1360.000000
 40
0.000000
 41
0.000000
 42
0.000000
  0
VERTEX
  8
SOLDER
 10
287.500000
 20
1360.000000
 40
0.000000
 41
0.000000
 42
0.000000
  0
VERTEX
  8
SOLDER
 10
287.500000
 20
1390.000000
 40
0.000000
 41
0.000000
 42
0.000000
  0
SEQEND
  0
POLYLINE
  8
SOLDER
 66
1
 70
1
 40
0.000000
 41
0.000000
 39
0.000000
  0
VERTEX
  8
SOLDER
 10
342.500000
 20
1440.000000
 40
0.000000
 41
0.000000
 42
0.000000
  0
VERTEX
  8
SOLDER
 10
342.500000
 20
1410.000000
 40
0.000000
 41
0.000000
 42
0.000000
  0
VERTEX
  8
SOLDER
 10
287.500000
 20
1410.000000
 40
0.000000
 41
0.000000
 42
0.000000
  0
VERTEX
  8
SOLDER
 10
287.500000
 20
1440.000000
 40
0.000000
 41
0.000000
 42
0.000000
  0
SEQEND
  0
POLYLINE
  8
SOLDER
 66
1
 70
1
 40
0.000000
 41
0.000000
 39
0.000000
  0
VERTEX
  8
SOLDER
 10
342.500000
 20
1490.000000
 40
0.000000
 41
0.000000
 42
0.000000
  0
VERTEX
  8
SOLDER
 10
342.500000
 20
1460.000000
 40
0.000000
 41
0.000000
 42
0.000000
  0
VERTEX
  8
SOLDER
 10
287.500000
 20
1460.000000
 40
0.000000
 41
0.000000
 42
0.000000
  0
VERTEX
  8
SOLDER
 10
287.500000
 20
1490.000000
 40
0.000000
 41
0.000000
 42
0.000000
  0
SEQEND
  0
POLYLINE
  8
SOLDER
 66
1
 70
1
 40
0.000000
 41
0.000000
 39
0.000000
  0
VERTEX
  8
SOLDER
 10
342.500000
 20
1540.000000
 40
0.000000
 41
0.000000
 42
0.000000
  0
VERTEX
  8
SOLDER
 10
342.500000
 20
1510.000000
 40
0.000000
 41
0.000000
 42
0.000000
  0
VERTEX
  8
SOLDER
 10
287.500000
 20
1510.000000
 40
0.000000
 41
0.000000
 42
0.000000
  0
VERTEX
  8
SOLDER
 10
287.500000
 20
1540.000000
 40
0.000000
 41
0.000000
 42
0.000000
  0
SEQEND
  0
POLYLINE
  8
SOLDER
 66
1
 70
1
 40
0.000000
 41
0.000000
 39
0.000000
  0
VERTEX
  8
SOLDER
 10
342.500000
 20
1590.000000
 40
0.000000
 41
0.000000
 42
0.000000
  0
VERTEX
  8
SOLDER
 10
342.500000
 20
1560.000000
 40
0.000000
 41
0.000000
 42
0.000000
  0
VERTEX
  8
SOLDER
 10
287.500000
 20
1560.000000
 40
0.000000
 41
0.000000
 42
0.000000
  0
VERTEX
  8
SOLDER
 10
287.500000
 20
1590.000000
 40
0.000000
 41
0.000000
 42
0.000000
  0
SEQEND
  0
POLYLINE
  8
SOLDER
 66
1
 70
1
 40
0.000000
 41
0.000000
 39
0.000000
  0
VERTEX
  8
SOLDER
 10
287.500000
 20
2135.000000
 40
0.000000
 41
0.000000
 42
0.000000
  0
VERTEX
  8
SOLDER
 10
287.500000
 20
2165.000000
 40
0.000000
 41
0.000000
 42
0.000000
  0
VERTEX
  8
SOLDER
 10
342.500000
 20
2165.000000
 40
0.000000
 41
0.000000
 42
0.000000
  0
VERTEX
  8
SOLDER
 10
342.500000
 20
2135.000000
 40
0.000000
 41
0.000000
 42
0.000000
  0
SEQEND
  0
POLYLINE
  8
SOLDER
 66
1
 70
1
 40
0.000000
 41
0.000000
 39
0.000000
  0
VERTEX
  8
SOLDER
 10
287.500000
 20
2085.000000
 40
0.000000
 41
0.000000
 42
0.000000
  0
VERTEX
  8
SOLDER
 10
287.500000
 20
2115.000000
 40
0.000000
 41
0.000000
 42
0.000000
  0
VERTEX
  8
SOLDER
 10
342.500000
 20
2115.000000
 40
0.000000
 41
0.000000
 42
0.000000
  0
VERTEX
  8
SOLDER
 10
342.500000
 20
2085.000000
 40
0.000000
 41
0.000000
 42
0.000000
  0
SEQEND
  0
POLYLINE
  8
SOLDER
 66
1
 70
1
 40
0.000000
 41
0.000000
 39
0.000000
  0
VERTEX
  8
SOLDER
 10
287.500000
 20
2035.000000
 40
0.000000
 41
0.000000
 42
0.000000
  0
VERTEX
  8
SOLDER
 10
287.500000
 20
2065.000000
 40
0.000000
 41
0.000000
 42
0.000000
  0
VERTEX
  8
SOLDER
 10
342.500000
 20
2065.000000
 40
0.000000
 41
0.000000
 42
0.000000
  0
VERTEX
  8
SOLDER
 10
342.500000
 20
2035.000000
 40
0.000000
 41
0.000000
 42
0.000000
  0
SEQEND
  0
POLYLINE
  8
SOLDER
 66
1
 70
1
 40
0.000000
 41
0.000000
 39
0.000000
  0
VERTEX
  8
SOLDER
 10
287.500000
 20
1985.000000
 40
0.000000
 41
0.000000
 42
0.000000
  0
VERTEX
  8
SOLDER
 10
287.500000
 20
2015.000000
 40
0.000000
 41
0.000000
 42
0.000000
  0
VERTEX
  8
SOLDER
 10
342.500000
 20
2015.000000
 40
0.000000
 41
0.000000
 42
0.000000
  0
VERTEX
  8
SOLDER
 10
342.500000
 20
1985.000000
 40
0.000000
 41
0.000000
 42
0.000000
  0
SEQEND
  0
POLYLINE
  8
SOLDER
 66
1
 70
1
 40
0.000000
 41
0.000000
 39
0.000000
  0
VERTEX
  8
SOLDER
 10
287.500000
 20
1935.000000
 40
0.000000
 41
0.000000
 42
0.000000
  0
VERTEX
  8
SOLDER
 10
287.500000
 20
1965.000000
 40
0.000000
 41
0.000000
 42
0.000000
  0
VERTEX
  8
SOLDER
 10
342.500000
 20
1965.000000
 40
0.000000
 41
0.000000
 42
0.000000
  0
VERTEX
  8
SOLDER
 10
342.500000
 20
1935.000000
 40
0.000000
 41
0.000000
 42
0.000000
  0
SEQEND
  0
POLYLINE
  8
SOLDER
 66
1
 70
1
 40
0.000000
 41
0.000000
 39
0.000000
  0
VERTEX
  8
SOLDER
 10
287.500000
 20
1885.000000
 40
0.000000
 41
0.000000
 42
0.000000
  0
VERTEX
  8
SOLDER
 10
287.500000
 20
1915.000000
 40
0.000000
 41
0.000000
 42
0.000000
  0
VERTEX
  8
SOLDER
 10
342.500000
 20
1915.000000
 40
0.000000
 41
0.000000
 42
0.000000
  0
VERTEX
  8
SOLDER
 10
342.500000
 20
1885.000000
 40
0.000000
 41
0.000000
 42
0.000000
  0
SEQEND
  0
POLYLINE
  8
SOLDER
 66
1
 70
1
 40
0.000000
 41
0.000000
 39
0.000000
  0
VERTEX
  8
SOLDER
 10
287.500000
 20
1835.000000
 40
0.000000
 41
0.000000
 42
0.000000
  0
VERTEX
  8
SOLDER
 10
287.500000
 20
1865.000000
 40
0.000000
 41
0.000000
 42
0.000000
  0
VERTEX
  8
SOLDER
 10
342.500000
 20
1865.000000
 40
0.000000
 41
0.000000
 42
0.000000
  0
VERTEX
  8
SOLDER
 10
342.500000
 20
1835.000000
 40
0.000000
 41
0.000000
 42
0.000000
  0
SEQEND
  0
POLYLINE
  8
SOLDER
 66
1
 70
1
 40
0.000000
 41
0.000000
 39
0.000000
  0
VERTEX
  8
SOLDER
 10
287.500000
 20
1785.000000
 40
0.000000
 41
0.000000
 42
0.000000
  0
VERTEX
  8
SOLDER
 10
287.500000
 20
1815.000000
 40
0.000000
 41
0.000000
 42
0.000000
  0
VERTEX
  8
SOLDER
 10
342.500000
 20
1815.000000
 40
0.000000
 41
0.000000
 42
0.000000
  0
VERTEX
  8
SOLDER
 10
342.500000
 20
1785.000000
 40
0.000000
 41
0.000000
 42
0.000000
  0
SEQEND
  0
POLYLINE
  8
SOLDER
 66
1
 70
1
 40
0.000000
 41
0.000000
 39
0.000000
  0
VERTEX
  8
SOLDER
 10
287.500000
 20
1735.000000
 40
0.000000
 41
0.000000
 42
0.000000
  0
VERTEX
  8
SOLDER
 10
287.500000
 20
1765.000000
 40
0.000000
 41
0.000000
 42
0.000000
  0
VERTEX
  8
SOLDER
 10
342.500000
 20
1765.000000
 40
0.000000
 41
0.000000
 42
0.000000
  0
VERTEX
  8
SOLDER
 10
342.500000
 20
1735.000000
 40
0.000000
 41
0.000000
 42
0.000000
  0
SEQEND
  0
POLYLINE
  8
SOLDER
 66
1
 70
1
 40
0.000000
 41
0.000000
 39
0.000000
  0
VERTEX
  8
SOLDER
 10
287.500000
 20
1685.000000
 40
0.000000
 41
0.000000
 42
0.000000
  0
VERTEX
  8
SOLDER
 10
287.500000
 20
1715.000000
 40
0.000000
 41
0.000000
 42
0.000000
  0
VERTEX
  8
SOLDER
 10
342.500000
 20
1715.000000
 40
0.000000
 41
0.000000
 42
0.000000
  0
VERTEX
  8
SOLDER
 10
342.500000
 20
1685.000000
 40
0.000000
 41
0.000000
 42
0.000000
  0
SEQEND
  0
POLYLINE
  8
SOLDER
 66
1
 70
1
 40
0.000000
 41
0.000000
 39
0.000000
  0
VERTEX
  8
SOLDER
 10
657.500000
 20
2135.000000
 40
0.000000
 41
0.000000
 42
0.000000
  0
VERTEX
  8
SOLDER
 10
657.500000
 20
2165.000000
 40
0.000000
 41
0.000000
 42
0.000000
  0
VERTEX
  8
SOLDER
 10
712.500000
 20
2165.000000
 40
0.000000
 41
0.000000
 42
0.000000
  0
VERTEX
  8
SOLDER
 10
712.500000
 20
2135.000000
 40
0.000000
 41
0.000000
 42
0.000000
  0
SEQEND
  0
POLYLINE
  8
SOLDER
 66
1
 70
1
 40
0.000000
 41
0.000000
 39
0.000000
  0
VERTEX
  8
SOLDER
 10
657.500000
 20
2085.000000
 40
0.000000
 41
0.000000
 42
0.000000
  0
VERTEX
  8
SOLDER
 10
657.500000
 20
2115.000000
 40
0.000000
 41
0.000000
 42
0.000000
  0
VERTEX
  8
SOLDER
 10
712.500000
 20
2115.000000
 40
0.000000
 41
0.000000
 42
0.000000
  0
VERTEX
  8
SOLDER
 10
712.500000
 20
2085.000000
 40
0.000000
 41
0.000000
 42
0.000000
  0
SEQEND
  0
POLYLINE
  8
SOLDER
 66
1
 70
1
 40
0.000000
 41
0.000000
 39
0.000000
  0
VERTEX
  8
SOLDER
 10
657.500000
 20
2035.000000
 40
0.000000
 41
0.000000
 42
0.000000
  0
VERTEX
  8
SOLDER
 10
657.500000
 20
2065.000000
 40
0.000000
 41
0.000000
 42
0.000000
  0
VERTEX
  8
SOLDER
 10
712.500000
 20
2065.000000
 40
0.000000
 41
0.000000
 42
0.000000
  0
VERTEX
  8
SOLDER
 10
712.500000
 20
2035.000000
 40
0.000000
 41
0.000000
 42
0.000000
  0
SEQEND
  0
POLYLINE
  8
SOLDER
 66
1
 70
1
 40
0.000000
 41
0.000000
 39
0.000000
  0
VERTEX
  8
SOLDER
 10
657.500000
 20
1985.000000
 40
0.000000
 41
0.000000
 42
0.000000
  0
VERTEX
  8
SOLDER
 10
657.500000
 20
2015.000000
 40
0.000000
 41
0.000000
 42
0.000000
  0
VERTEX
  8
SOLDER
 10
712.500000
 20
2015.000000
 40
0.000000
 41
0.000000
 42
0.000000
  0
VERTEX
  8
SOLDER
 10
712.500000
 20
1985.000000
 40
0.000000
 41
0.000000
 42
0.000000
  0
SEQEND
  0
POLYLINE
  8
SOLDER
 66
1
 70
1
 40
0.000000
 41
0.000000
 39
0.000000
  0
VERTEX
  8
SOLDER
 10
657.500000
 20
1935.000000
 40
0.000000
 41
0.000000
 42
0.000000
  0
VERTEX
  8
SOLDER
 10
657.500000
 20
1965.000000
 40
0.000000
 41
0.000000
 42
0.000000
  0
VERTEX
  8
SOLDER
 10
712.500000
 20
1965.000000
 40
0.000000
 41
0.000000
 42
0.000000
  0
VERTEX
  8
SOLDER
 10
712.500000
 20
1935.000000
 40
0.000000
 41
0.000000
 42
0.000000
  0
SEQEND
  0
POLYLINE
  8
SOLDER
 66
1
 70
1
 40
0.000000
 41
0.000000
 39
0.000000
  0
VERTEX
  8
SOLDER
 10
657.500000
 20
1885.000000
 40
0.000000
 41
0.000000
 42
0.000000
  0
VERTEX
  8
SOLDER
 10
657.500000
 20
1915.000000
 40
0.000000
 41
0.000000
 42
0.000000
  0
VERTEX
  8
SOLDER
 10
712.500000
 20
1915.000000
 40
0.000000
 41
0.000000
 42
0.000000
  0
VERTEX
  8
SOLDER
 10
712.500000
 20
1885.000000
 40
0.000000
 41
0.000000
 42
0.000000
  0
SEQEND
  0
POLYLINE
  8
SOLDER
 66
1
 70
1
 40
0.000000
 41
0.000000
 39
0.000000
  0
VERTEX
  8
SOLDER
 10
657.500000
 20
1835.000000
 40
0.000000
 41
0.000000
 42
0.000000
  0
VERTEX
  8
SOLDER
 10
657.500000
 20
1865.000000
 40
0.000000
 41
0.000000
 42
0.000000
  0
VERTEX
  8
SOLDER
 10
712.500000
 20
1865.000000
 40
0.000000
 41
0.000000
 42
0.000000
  0
VERTEX
  8
SOLDER
 10
712.500000
 20
1835.000000
 40
0.000000
 41
0.000000
 42
0.000000
  0
SEQEND
  0
POLYLINE
  8
SOLDER
 66
1
 70
1
 40
0.000000
 41
0.000000
 39
0.000000
  0
VERTEX
  8
SOLDER
 10
657.500000
 20
1785.000000
 40
0.000000
 41
0.000000
 42
0.000000
  0
VERTEX
  8
SOLDER
 10
657.500000
 20
1815.000000
 40
0.000000
 41
0.000000
 42
0.000000
  0
VERTEX
  8
SOLDER
 10
712.500000
 20
1815.000000
 40
0.000000
 41
0.000000
 42
0.000000
  0
VERTEX
  8
SOLDER
 10
712.500000
 20
1785.000000
 40
0.000000
 41
0.000000
 42
0.000000
  0
SEQEND
  0
POLYLINE
  8
SOLDER
 66
1
 70
1
 40
0.000000
 41
0.000000
 39
0.000000
  0
VERTEX
  8
SOLDER
 10
657.500000
 20
1735.000000
 40
0.000000
 41
0.000000
 42
0.000000
  0
VERTEX
  8
SOLDER
 10
657.500000
 20
1765.000000
 40
0.000000
 41
0.000000
 42
0.000000
  0
VERTEX
  8
SOLDER
 10
712.500000
 20
1765.000000
 40
0.000000
 41
0.000000
 42
0.000000
  0
VERTEX
  8
SOLDER
 10
712.500000
 20
1735.000000
 40
0.000000
 41
0.000000
 42
0.000000
  0
SEQEND
  0
POLYLINE
  8
SOLDER
 66
1
 70
1
 40
0.000000
 41
0.000000
 39
0.000000
  0
VERTEX
  8
SOLDER
 10
657.500000
 20
1685.000000
 40
0.000000
 41
0.000000
 42
0.000000
  0
VERTEX
  8
SOLDER
 10
657.500000
 20
1715.000000
 40
0.000000
 41
0.000000
 42
0.000000
  0
VERTEX
  8
SOLDER
 10
712.500000
 20
1715.000000
 40
0.000000
 41
0.000000
 42
0.000000
  0
VERTEX
  8
SOLDER
 10
712.500000
 20
1685.000000
 40
0.000000
 41
0.000000
 42
0.000000
  0
SEQEND
  0
POLYLINE
  8
SOLDER
 66
1
 70
1
 40
0.000000
 41
0.000000
 39
0.000000
  0
VERTEX
  8
SOLDER
 10
712.500000
 20
540.000000
 40
0.000000
 41
0.000000
 42
0.000000
  0
VERTEX
  8
SOLDER
 10
712.500000
 20
510.000000
 40
0.000000
 41
0.000000
 42
0.000000
  0
VERTEX
  8
SOLDER
 10
657.500000
 20
510.000000
 40
0.000000
 41
0.000000
 42
0.000000
  0
VERTEX
  8
SOLDER
 10
657.500000
 20
540.000000
 40
0.000000
 41
0.000000
 42
0.000000
  0
SEQEND
  0
POLYLINE
  8
SOLDER
 66
1
 70
1
 40
0.000000
 41
0.000000
 39
0.000000
  0
VERTEX
  8
SOLDER
 10
712.500000
 20
590.000000
 40
0.000000
 41
0.000000
 42
0.000000
  0
VERTEX
  8
SOLDER
 10
712.500000
 20
560.000000
 40
0.000000
 41
0.000000
 42
0.000000
  0
VERTEX
  8
SOLDER
 10
657.500000
 20
560.000000
 40
0.000000
 41
0.000000
 42
0.000000
  0
VERTEX
  8
SOLDER
 10
657.500000
 20
590.000000
 40
0.000000
 41
0.000000
 42
0.000000
  0
SEQEND
  0
POLYLINE
  8
SOLDER
 66
1
 70
1
 40
0.000000
 41
0.000000
 39
0.000000
  0
VERTEX
  8
SOLDER
 10
712.500000
 20
640.000000
 40
0.000000
 41
0.000000
 42
0.000000
  0
VERTEX
  8
SOLDER
 10
712.500000
 20
610.000000
 40
0.000000
 41
0.000000
 42
0.000000
  0
VERTEX
  8
SOLDER
 10
657.500000
 20
610.000000
 40
0.000000
 41
0.000000
 42
0.000000
  0
VERTEX
  8
SOLDER
 10
657.500000
 20
640.000000
 40
0.000000
 41
0.000000
 42
0.000000
  0
SEQEND
  0
POLYLINE
  8
SOLDER
 66
1
 70
1
 40
0.000000
 41
0.000000
 39
0.000000
  0
VERTEX
  8
SOLDER
 10
712.500000
 20
690.000000
 40
0.000000
 41
0.000000
 42
0.000000
  0
VERTEX
  8
SOLDER
 10
712.500000
 20
660.000000
 40
0.000000
 41
0.000000
 42
0.000000
  0
VERTEX
  8
SOLDER
 10
657.500000
 20
660.000000
 40
0.000000
 41
0.000000
 42
0.000000
  0
VERTEX
  8
SOLDER
 10
657.500000
 20
690.000000
 40
0.000000
 41
0.000000
 42
0.000000
  0
SEQEND
  0
POLYLINE
  8
SOLDER
 66
1
 70
1
 40
0.000000
 41
0.000000
 39
0.000000
  0
VERTEX
  8
SOLDER
 10
712.500000
 20
740.000000
 40
0.000000
 41
0.000000
 42
0.000000
  0
VERTEX
  8
SOLDER
 10
712.500000
 20
710.000000
 40
0.000000
 41
0.000000
 42
0.000000
  0
VERTEX
  8
SOLDER
 10
657.500000
 20
710.000000
 40
0.000000
 41
0.000000
 42
0.000000
  0
VERTEX
  8
SOLDER
 10
657.500000
 20
740.000000
 40
0.000000
 41
0.000000
 42
0.000000
  0
SEQEND
  0
POLYLINE
  8
SOLDER
 66
1
 70
1
 40
0.000000
 41
0.000000
 39
0.000000
  0
VERTEX
  8
SOLDER
 10
712.500000
 20
790.000000
 40
0.000000
 41
0.000000
 42
0.000000
  0
VERTEX
  8
SOLDER
 10
712.500000
 20
760.000000
 40
0.000000
 41
0.000000
 42
0.000000
  0
VERTEX
  8
SOLDER
 10
657.500000
 20
760.000000
 40
0.000000
 41
0.000000
 42
0.000000
  0
VERTEX
  8
SOLDER
 10
657.500000
 20
790.000000
 40
0.000000
 41
0.000000
 42
0.000000
  0
SEQEND
  0
POLYLINE
  8
SOLDER
 66
1
 70
1
 40
0.000000
 41
0.000000
 39
0.000000
  0
VERTEX
  8
SOLDER
 10
712.500000
 20
840.000000
 40
0.000000
 41
0.000000
 42
0.000000
  0
VERTEX
  8
SOLDER
 10
712.500000
 20
810.000000
 40
0.000000
 41
0.000000
 42
0.000000
  0
VERTEX
  8
SOLDER
 10
657.500000
 20
810.000000
 40
0.000000
 41
0.000000
 42
0.000000
  0
VERTEX
  8
SOLDER
 10
657.500000
 20
840.000000
 40
0.000000
 41
0.000000
 42
0.000000
  0
SEQEND
  0
POLYLINE
  8
SOLDER
 66
1
 70
1
 40
0.000000
 41
0.000000
 39
0.000000
  0
VERTEX
  8
SOLDER
 10
712.500000
 20
890.000000
 40
0.000000
 41
0.000000
 42
0.000000
  0
VERTEX
  8
SOLDER
 10
712.500000
 20
860.000000
 40
0.000000
 41
0.000000
 42
0.000000
  0
VERTEX
  8
SOLDER
 10
657.500000
 20
860.000000
 40
0.000000
 41
0.000000
 42
0.000000
  0
VERTEX
  8
SOLDER
 10
657.500000
 20
890.000000
 40
0.000000
 41
0.000000
 42
0.000000
  0
SEQEND
  0
POLYLINE
  8
SOLDER
 66
1
 70
1
 40
0.000000
 41
0.000000
 39
0.000000
  0
VERTEX
  8
SOLDER
 10
712.500000
 20
940.000000
 40
0.000000
 41
0.000000
 42
0.000000
  0
VERTEX
  8
SOLDER
 10
712.500000
 20
910.000000
 40
0.000000
 41
0.000000
 42
0.000000
  0
VERTEX
  8
SOLDER
 10
657.500000
 20
910.000000
 40
0.000000
 41
0.000000
 42
0.000000
  0
VERTEX
  8
SOLDER
 10
657.500000
 20
940.000000
 40
0.000000
 41
0.000000
 42
0.000000
  0
SEQEND
  0
POLYLINE
  8
SOLDER
 66
1
 70
1
 40
0.000000
 41
0.000000
 39
0.000000
  0
VERTEX
  8
SOLDER
 10
712.500000
 20
990.000000
 40
0.000000
 41
0.000000
 42
0.000000
  0
VERTEX
  8
SOLDER
 10
712.500000
 20
960.000000
 40
0.000000
 41
0.000000
 42
0.000000
  0
VERTEX
  8
SOLDER
 10
657.500000
 20
960.000000
 40
0.000000
 41
0.000000
 42
0.000000
  0
VERTEX
  8
SOLDER
 10
657.500000
 20
990.000000
 40
0.000000
 41
0.000000
 42
0.000000
  0
SEQEND
  0
POLYLINE
  8
SOLDER
 66
1
 70
1
 40
0.000000
 41
0.000000
 39
0.000000
  0
VERTEX
  8
SOLDER
 10
342.500000
 20
540.000000
 40
0.000000
 41
0.000000
 42
0.000000
  0
VERTEX
  8
SOLDER
 10
342.500000
 20
510.000000
 40
0.000000
 41
0.000000
 42
0.000000
  0
VERTEX
  8
SOLDER
 10
287.500000
 20
510.000000
 40
0.000000
 41
0.000000
 42
0.000000
  0
VERTEX
  8
SOLDER
 10
287.500000
 20
540.000000
 40
0.000000
 41
0.000000
 42
0.000000
  0
SEQEND
  0
POLYLINE
  8
SOLDER
 66
1
 70
1
 40
0.000000
 41
0.000000
 39
0.000000
  0
VERTEX
  8
SOLDER
 10
342.500000
 20
590.000000
 40
0.000000
 41
0.000000
 42
0.000000
  0
VERTEX
  8
SOLDER
 10
342.500000
 20
560.000000
 40
0.000000
 41
0.000000
 42
0.000000
  0
VERTEX
  8
SOLDER
 10
287.500000
 20
560.000000
 40
0.000000
 41
0.000000
 42
0.000000
  0
VERTEX
  8
SOLDER
 10
287.500000
 20
590.000000
 40
0.000000
 41
0.000000
 42
0.000000
  0
SEQEND
  0
POLYLINE
  8
SOLDER
 66
1
 70
1
 40
0.000000
 41
0.000000
 39
0.000000
  0
VERTEX
  8
SOLDER
 10
342.500000
 20
640.000000
 40
0.000000
 41
0.000000
 42
0.000000
  0
VERTEX
  8
SOLDER
 10
342.500000
 20
610.000000
 40
0.000000
 41
0.000000
 42
0.000000
  0
VERTEX
  8
SOLDER
 10
287.500000
 20
610.000000
 40
0.000000
 41
0.000000
 42
0.000000
  0
VERTEX
  8
SOLDER
 10
287.500000
 20
640.000000
 40
0.000000
 41
0.000000
 42
0.000000
  0
SEQEND
  0
POLYLINE
  8
SOLDER
 66
1
 70
1
 40
0.000000
 41
0.000000
 39
0.000000
  0
VERTEX
  8
SOLDER
 10
342.500000
 20
690.000000
 40
0.000000
 41
0.000000
 42
0.000000
  0
VERTEX
  8
SOLDER
 10
342.500000
 20
660.000000
 40
0.000000
 41
0.000000
 42
0.000000
  0
VERTEX
  8
SOLDER
 10
287.500000
 20
660.000000
 40
0.000000
 41
0.000000
 42
0.000000
  0
VERTEX
  8
SOLDER
 10
287.500000
 20
690.000000
 40
0.000000
 41
0.000000
 42
0.000000
  0
SEQEND
  0
POLYLINE
  8
SOLDER
 66
1
 70
1
 40
0.000000
 41
0.000000
 39
0.000000
  0
VERTEX
  8
SOLDER
 10
342.500000
 20
740.000000
 40
0.000000
 41
0.000000
 42
0.000000
  0
VERTEX
  8
SOLDER
 10
342.500000
 20
710.000000
 40
0.000000
 41
0.000000
 42
0.000000
  0
VERTEX
  8
SOLDER
 10
287.500000
 20
710.000000
 40
0.000000
 41
0.000000
 42
0.000000
  0
VERTEX
  8
SOLDER
 10
287.500000
 20
740.000000
 40
0.000000
 41
0.000000
 42
0.000000
  0
SEQEND
  0
POLYLINE
  8
SOLDER
 66
1
 70
1
 40
0.000000
 41
0.000000
 39
0.000000
  0
VERTEX
  8
SOLDER
 10
342.500000
 20
790.000000
 40
0.000000
 41
0.000000
 42
0.000000
  0
VERTEX
  8
SOLDER
 10
342.500000
 20
760.000000
 40
0.000000
 41
0.000000
 42
0.000000
  0
VERTEX
  8
SOLDER
 10
287.500000
 20
760.000000
 40
0.000000
 41
0.000000
 42
0.000000
  0
VERTEX
  8
SOLDER
 10
287.500000
 20
790.000000
 40
0.000000
 41
0.000000
 42
0.000000
  0
SEQEND
  0
POLYLINE
  8
SOLDER
 66
1
 70
1
 40
0.000000
 41
0.000000
 39
0.000000
  0
VERTEX
  8
SOLDER
 10
342.500000
 20
840.000000
 40
0.000000
 41
0.000000
 42
0.000000
  0
VERTEX
  8
SOLDER
 10
342.500000
 20
810.000000
 40
0.000000
 41
0.000000
 42
0.000000
  0
VERTEX
  8
SOLDER
 10
287.500000
 20
810.000000
 40
0.000000
 41
0.000000
 42
0.000000
  0
VERTEX
  8
SOLDER
 10
287.500000
 20
840.000000
 40
0.000000
 41
0.000000
 42
0.000000
  0
SEQEND
  0
POLYLINE
  8
SOLDER
 66
1
 70
1
 40
0.000000
 41
0.000000
 39
0.000000
  0
VERTEX
  8
SOLDER
 10
342.500000
 20
890.000000
 40
0.000000
 41
0.000000
 42
0.000000
  0
VERTEX
  8
SOLDER
 10
342.500000
 20
860.000000
 40
0.000000
 41
0.000000
 42
0.000000
  0
VERTEX
  8
SOLDER
 10
287.500000
 20
860.000000
 40
0.000000
 41
0.000000
 42
0.000000
  0
VERTEX
  8
SOLDER
 10
287.500000
 20
890.000000
 40
0.000000
 41
0.000000
 42
0.000000
  0
SEQEND
  0
POLYLINE
  8
SOLDER
 66
1
 70
1
 40
0.000000
 41
0.000000
 39
0.000000
  0
VERTEX
  8
SOLDER
 10
342.500000
 20
940.000000
 40
0.000000
 41
0.000000
 42
0.000000
  0
VERTEX
  8
SOLDER
 10
342.500000
 20
910.000000
 40
0.000000
 41
0.000000
 42
0.000000
  0
VERTEX
  8
SOLDER
 10
287.500000
 20
910.000000
 40
0.000000
 41
0.000000
 42
0.000000
  0
VERTEX
  8
SOLDER
 10
287.500000
 20
940.000000
 40
0.000000
 41
0.000000
 42
0.000000
  0
SEQEND
  0
POLYLINE
  8
SOLDER
 66
1
 70
1
 40
0.000000
 41
0.000000
 39
0.000000
  0
VERTEX
  8
SOLDER
 10
342.500000
 20
990.000000
 40
0.000000
 41
0.000000
 42
0.000000
  0
VERTEX
  8
SOLDER
 10
342.500000
 20
960.000000
 40
0.000000
 41
0.000000
 42
0.000000
  0
VERTEX
  8
SOLDER
 10
287.500000
 20
960.000000
 40
0.000000
 41
0.000000
 42
0.000000
  0
VERTEX
  8
SOLDER
 10
287.500000
 20
990.000000
 40
0.000000
 41
0.000000
 42
0.000000
  0
SEQEND
  0
POLYLINE
  8
SOLDER
 66
1
 70
1
 40
0.000000
 41
0.000000
 39
0.000000
  0
VERTEX
  8
SOLDER
 10
725.000000
 20
2860.000000
 40
0.000000
 41
0.000000
 42
0.000000
  0
VERTEX
  8
SOLDER
 10
725.000000
 20
2890.000000
 40
0.000000
 41
0.000000
 42
0.000000
  0
VERTEX
  8
SOLDER
 10
780.000000
 20
2890.000000
 40
0.000000
 41
0.000000
 42
0.000000
  0
VERTEX
  8
SOLDER
 10
780.000000
 20
2860.000000
 40
0.000000
 41
0.000000
 42
0.000000
  0
SEQEND
  0
POLYLINE
  8
SOLDER
 66
1
 70
1
 40
0.000000
 41
0.000000
 39
0.000000
  0
VERTEX
  8
SOLDER
 10
725.000000
 20
2910.000000
 40
0.000000
 41
0.000000
 42
0.000000
  0
VERTEX
  8
SOLDER
 10
725.000000
 20
2940.000000
 40
0.000000
 41
0.000000
 42
0.000000
  0
VERTEX
  8
SOLDER
 10
780.000000
 20
2940.000000
 40
0.000000
 41
0.000000
 42
0.000000
  0
VERTEX
  8
SOLDER
 10
780.000000
 20
2910.000000
 40
0.000000
 41
0.000000
 42
0.000000
  0
SEQEND
  0
POLYLINE
  8
SOLDER
 66
1
 70
1
 40
0.000000
 41
0.000000
 39
0.000000
  0
VERTEX
  8
SOLDER
 10
725.000000
 20
2960.000000
 40
0.000000
 41
0.000000
 42
0.000000
  0
VERTEX
  8
SOLDER
 10
725.000000
 20
2990.000000
 40
0.000000
 41
0.000000
 42
0.000000
  0
VERTEX
  8
SOLDER
 10
780.000000
 20
2990.000000
 40
0.000000
 41
0.000000
 42
0.000000
  0
VERTEX
  8
SOLDER
 10
780.000000
 20
2960.000000
 40
0.000000
 41
0.000000
 42
0.000000
  0
SEQEND
  0
POLYLINE
  8
SOLDER
 66
1
 70
1
 40
0.000000
 41
0.000000
 39
0.000000
  0
VERTEX
  8
SOLDER
 10
725.000000
 20
3010.000000
 40
0.000000
 41
0.000000
 42
0.000000
  0
VERTEX
  8
SOLDER
 10
725.000000
 20
3040.000000
 40
0.000000
 41
0.000000
 42
0.000000
  0
VERTEX
  8
SOLDER
 10
780.000000
 20
3040.000000
 40
0.000000
 41
0.000000
 42
0.000000
  0
VERTEX
  8
SOLDER
 10
780.000000
 20
3010.000000
 40
0.000000
 41
0.000000
 42
0.000000
  0
SEQEND
  0
POLYLINE
  8
SOLDER
 66
1
 70
1
 40
0.000000
 41
0.000000
 39
0.000000
  0
VERTEX
  8
SOLDER
 10
725.000000
 20
3060.000000
 40
0.000000
 41
0.000000
 42
0.000000
  0
VERTEX
  8
SOLDER
 10
725.000000
 20
3090.000000
 40
0.000000
 41
0.000000
 42
0.000000
  0
VERTEX
  8
SOLDER
 10
780.000000
 20
3090.000000
 40
0.000000
 41
0.000000
 42
0.000000
  0
VERTEX
  8
SOLDER
 10
780.000000
 20
3060.000000
 40
0.000000
 41
0.000000
 42
0.000000
  0
SEQEND
  0
POLYLINE
  8
SOLDER
 66
1
 70
1
 40
0.000000
 41
0.000000
 39
0.000000
  0
VERTEX
  8
SOLDER
 10
725.000000
 20
3110.000000
 40
0.000000
 41
0.000000
 42
0.000000
  0
VERTEX
  8
SOLDER
 10
725.000000
 20
3140.000000
 40
0.000000
 41
0.000000
 42
0.000000
  0
VERTEX
  8
SOLDER
 10
780.000000
 20
3140.000000
 40
0.000000
 41
0.000000
 42
0.000000
  0
VERTEX
  8
SOLDER
 10
780.000000
 20
3110.000000
 40
0.000000
 41
0.000000
 42
0.000000
  0
SEQEND
  0
POLYLINE
  8
SOLDER
 66
1
 70
1
 40
0.000000
 41
0.000000
 39
0.000000
  0
VERTEX
  8
SOLDER
 10
725.000000
 20
3160.000000
 40
0.000000
 41
0.000000
 42
0.000000
  0
VERTEX
  8
SOLDER
 10
725.000000
 20
3190.000000
 40
0.000000
 41
0.000000
 42
0.000000
  0
VERTEX
  8
SOLDER
 10
780.000000
 20
3190.000000
 40
0.000000
 41
0.000000
 42
0.000000
  0
VERTEX
  8
SOLDER
 10
780.000000
 20
3160.000000
 40
0.000000
 41
0.000000
 42
0.000000
  0
SEQEND
  0
POLYLINE
  8
SOLDER
 66
1
 70
1
 40
0.000000
 41
0.000000
 39
0.000000
  0
VERTEX
  8
SOLDER
 10
725.000000
 20
3210.000000
 40
0.000000
 41
0.000000
 42
0.000000
  0
VERTEX
  8
SOLDER
 10
725.000000
 20
3240.000000
 40
0.000000
 41
0.000000
 42
0.000000
  0
VERTEX
  8
SOLDER
 10
780.000000
 20
3240.000000
 40
0.000000
 41
0.000000
 42
0.000000
  0
VERTEX
  8
SOLDER
 10
780.000000
 20
3210.000000
 40
0.000000
 41
0.000000
 42
0.000000
  0
SEQEND
  0
POLYLINE
  8
SOLDER
 66
1
 70
1
 40
0.000000
 41
0.000000
 39
0.000000
  0
VERTEX
  8
SOLDER
 10
920.000000
 20
2910.000000
 40
0.000000
 41
0.000000
 42
0.000000
  0
VERTEX
  8
SOLDER
 10
920.000000
 20
2940.000000
 40
0.000000
 41
0.000000
 42
0.000000
  0
VERTEX
  8
SOLDER
 10
975.000000
 20
2940.000000
 40
0.000000
 41
0.000000
 42
0.000000
  0
VERTEX
  8
SOLDER
 10
975.000000
 20
2910.000000
 40
0.000000
 41
0.000000
 42
0.000000
  0
SEQEND
  0
POLYLINE
  8
SOLDER
 66
1
 70
1
 40
0.000000
 41
0.000000
 39
0.000000
  0
VERTEX
  8
SOLDER
 10
920.000000
 20
2860.000000
 40
0.000000
 41
0.000000
 42
0.000000
  0
VERTEX
  8
SOLDER
 10
920.000000
 20
2890.000000
 40
0.000000
 41
0.000000
 42
0.000000
  0
VERTEX
  8
SOLDER
 10
975.000000
 20
2890.000000
 40
0.000000
 41
0.000000
 42
0.000000
  0
VERTEX
  8
SOLDER
 10
975.000000
 20
2860.000000
 40
0.000000
 41
0.000000
 42
0.000000
  0
SEQEND
  0
POLYLINE
  8
SOLDER
 66
1
 70
1
 40
0.000000
 41
0.000000
 39
0.000000
  0
VERTEX
  8
SOLDER
 10
920.000000
 20
2960.000000
 40
0.000000
 41
0.000000
 42
0.000000
  0
VERTEX
  8
SOLDER
 10
920.000000
 20
2990.000000
 40
0.000000
 41
0.000000
 42
0.000000
  0
VERTEX
  8
SOLDER
 10
975.000000
 20
2990.000000
 40
0.000000
 41
0.000000
 42
0.000000
  0
VERTEX
  8
SOLDER
 10
975.000000
 20
2960.000000
 40
0.000000
 41
0.000000
 42
0.000000
  0
SEQEND
  0
POLYLINE
  8
SOLDER
 66
1
 70
1
 40
0.000000
 41
0.000000
 39
0.000000
  0
VERTEX
  8
SOLDER
 10
920.000000
 20
3060.000000
 40
0.000000
 41
0.000000
 42
0.000000
  0
VERTEX
  8
SOLDER
 10
920.000000
 20
3090.000000
 40
0.000000
 41
0.000000
 42
0.000000
  0
VERTEX
  8
SOLDER
 10
975.000000
 20
3090.000000
 40
0.000000
 41
0.000000
 42
0.000000
  0
VERTEX
  8
SOLDER
 10
975.000000
 20
3060.000000
 40
0.000000
 41
0.000000
 42
0.000000
  0
SEQEND
  0
POLYLINE
  8
SOLDER
 66
1
 70
1
 40
0.000000
 41
0.000000
 39
0.000000
  0
VERTEX
  8
SOLDER
 10
920.000000
 20
3010.000000
 40
0.000000
 41
0.000000
 42
0.000000
  0
VERTEX
  8
SOLDER
 10
920.000000
 20
3040.000000
 40
0.000000
 41
0.000000
 42
0.000000
  0
VERTEX
  8
SOLDER
 10
975.000000
 20
3040.000000
 40
0.000000
 41
0.000000
 42
0.000000
  0
VERTEX
  8
SOLDER
 10
975.000000
 20
3010.000000
 40
0.000000
 41
0.000000
 42
0.000000
  0
SEQEND
  0
POLYLINE
  8
SOLDER
 66
1
 70
1
 40
0.000000
 41
0.000000
 39
0.000000
  0
VERTEX
  8
SOLDER
 10
920.000000
 20
3110.000000
 40
0.000000
 41
0.000000
 42
0.000000
  0
VERTEX
  8
SOLDER
 10
920.000000
 20
3140.000000
 40
0.000000
 41
0.000000
 42
0.000000
  0
VERTEX
  8
SOLDER
 10
975.000000
 20
3140.000000
 40
0.000000
 41
0.000000
 42
0.000000
  0
VERTEX
  8
SOLDER
 10
975.000000
 20
3110.000000
 40
0.000000
 41
0.000000
 42
0.000000
  0
SEQEND
  0
POLYLINE
  8
SOLDER
 66
1
 70
1
 40
0.000000
 41
0.000000
 39
0.000000
  0
VERTEX
  8
SOLDER
 10
920.000000
 20
3210.000000
 40
0.000000
 41
0.000000
 42
0.000000
  0
VERTEX
  8
SOLDER
 10
920.000000
 20
3240.000000
 40
0.000000
 41
0.000000
 42
0.000000
  0
VERTEX
  8
SOLDER
 10
975.000000
 20
3240.000000
 40
0.000000
 41
0.000000
 42
0.000000
  0
VERTEX
  8
SOLDER
 10
975.000000
 20
3210.000000
 40
0.000000
 41
0.000000
 42
0.000000
  0
SEQEND
  0
POLYLINE
  8
SOLDER
 66
1
 70
1
 40
0.000000
 41
0.000000
 39
0.000000
  0
VERTEX
  8
SOLDER
 10
920.000000
 20
3160.000000
 40
0.000000
 41
0.000000
 42
0.000000
  0
VERTEX
  8
SOLDER
 10
920.000000
 20
3190.000000
 40
0.000000
 41
0.000000
 42
0.000000
  0
VERTEX
  8
SOLDER
 10
975.000000
 20
3190.000000
 40
0.000000
 41
0.000000
 42
0.000000
  0
VERTEX
  8
SOLDER
 10
975.000000
 20
3160.000000
 40
0.000000
 41
0.000000
 42
0.000000
  0
SEQEND
  0
POLYLINE
  8
SOLDER
 66
1
 70
1
 40
0.000000
 41
0.000000
 39
0.000000
  0
VERTEX
  8
SOLDER
 10
1175.000000
 20
2860.000000
 40
0.000000
 41
0.000000
 42
0.000000
  0
VERTEX
  8
SOLDER
 10
1175.000000
 20
2890.000000
 40
0.000000
 41
0.000000
 42
0.000000
  0
VERTEX
  8
SOLDER
 10
1230.000000
 20
2890.000000
 40
0.000000
 41
0.000000
 42
0.000000
  0
VERTEX
  8
SOLDER
 10
1230.000000
 20
2860.000000
 40
0.000000
 41
0.000000
 42
0.000000
  0
SEQEND
  0
POLYLINE
  8
SOLDER
 66
1
 70
1
 40
0.000000
 41
0.000000
 39
0.000000
  0
VERTEX
  8
SOLDER
 10
1175.000000
 20
2910.000000
 40
0.000000
 41
0.000000
 42
0.000000
  0
VERTEX
  8
SOLDER
 10
1175.000000
 20
2940.000000
 40
0.000000
 41
0.000000
 42
0.000000
  0
VERTEX
  8
SOLDER
 10
1230.000000
 20
2940.000000
 40
0.000000
 41
0.000000
 42
0.000000
  0
VERTEX
  8
SOLDER
 10
1230.000000
 20
2910.000000
 40
0.000000
 41
0.000000
 42
0.000000
  0
SEQEND
  0
POLYLINE
  8
SOLDER
 66
1
 70
1
 40
0.000000
 41
0.000000
 39
0.000000
  0
VERTEX
  8
SOLDER
 10
1175.000000
 20
2960.000000
 40
0.000000
 41
0.000000
 42
0.000000
  0
VERTEX
  8
SOLDER
 10
1175.000000
 20
2990.000000
 40
0.000000
 41
0.000000
 42
0.000000
  0
VERTEX
  8
SOLDER
 10
1230.000000
 20
2990.000000
 40
0.000000
 41
0.000000
 42
0.000000
  0
VERTEX
  8
SOLDER
 10
1230.000000
 20
2960.000000
 40
0.000000
 41
0.000000
 42
0.000000
  0
SEQEND
  0
POLYLINE
  8
SOLDER
 66
1
 70
1
 40
0.000000
 41
0.000000
 39
0.000000
  0
VERTEX
  8
SOLDER
 10
1175.000000
 20
3010.000000
 40
0.000000
 41
0.000000
 42
0.000000
  0
VERTEX
  8
SOLDER
 10
1175.000000
 20
3040.000000
 40
0.000000
 41
0.000000
 42
0.000000
  0
VERTEX
  8
SOLDER
 10
1230.000000
 20
3040.000000
 40
0.000000
 41
0.000000
 42
0.000000
  0
VERTEX
  8
SOLDER
 10
1230.000000
 20
3010.000000
 40
0.000000
 41
0.000000
 42
0.000000
  0
SEQEND
  0
POLYLINE
  8
SOLDER
 66
1
 70
1
 40
0.000000
 41
0.000000
 39
0.000000
  0
VERTEX
  8
SOLDER
 10
1175.000000
 20
3060.000000
 40
0.000000
 41
0.000000
 42
0.000000
  0
VERTEX
  8
SOLDER
 10
1175.000000
 20
3090.000000
 40
0.000000
 41
0.000000
 42
0.000000
  0
VERTEX
  8
SOLDER
 10
1230.000000
 20
3090.000000
 40
0.000000
 41
0.000000
 42
0.000000
  0
VERTEX
  8
SOLDER
 10
1230.000000
 20
3060.000000
 40
0.000000
 41
0.000000
 42
0.000000
  0
SEQEND
  0
POLYLINE
  8
SOLDER
 66
1
 70
1
 40
0.000000
 41
0.000000
 39
0.000000
  0
VERTEX
  8
SOLDER
 10
1175.000000
 20
3110.000000
 40
0.000000
 41
0.000000
 42
0.000000
  0
VERTEX
  8
SOLDER
 10
1175.000000
 20
3140.000000
 40
0.000000
 41
0.000000
 42
0.000000
  0
VERTEX
  8
SOLDER
 10
1230.000000
 20
3140.000000
 40
0.000000
 41
0.000000
 42
0.000000
  0
VERTEX
  8
SOLDER
 10
1230.000000
 20
3110.000000
 40
0.000000
 41
0.000000
 42
0.000000
  0
SEQEND
  0
POLYLINE
  8
SOLDER
 66
1
 70
1
 40
0.000000
 41
0.000000
 39
0.000000
  0
VERTEX
  8
SOLDER
 10
1175.000000
 20
3160.000000
 40
0.000000
 41
0.000000
 42
0.000000
  0
VERTEX
  8
SOLDER
 10
1175.000000
 20
3190.000000
 40
0.000000
 41
0.000000
 42
0.000000
  0
VERTEX
  8
SOLDER
 10
1230.000000
 20
3190.000000
 40
0.000000
 41
0.000000
 42
0.000000
  0
VERTEX
  8
SOLDER
 10
1230.000000
 20
3160.000000
 40
0.000000
 41
0.000000
 42
0.000000
  0
SEQEND
  0
POLYLINE
  8
SOLDER
 66
1
 70
1
 40
0.000000
 41
0.000000
 39
0.000000
  0
VERTEX
  8
SOLDER
 10
1175.000000
 20
3210.000000
 40
0.000000
 41
0.000000
 42
0.000000
  0
VERTEX
  8
SOLDER
 10
1175.000000
 20
3240.000000
 40
0.000000
 41
0.000000
 42
0.000000
  0
VERTEX
  8
SOLDER
 10
1230.000000
 20
3240.000000
 40
0.000000
 41
0.000000
 42
0.000000
  0
VERTEX
  8
SOLDER
 10
1230.000000
 20
3210.000000
 40
0.000000
 41
0.000000
 42
0.000000
  0
SEQEND
  0
POLYLINE
  8
SOLDER
 66
1
 70
1
 40
0.000000
 41
0.000000
 39
0.000000
  0
VERTEX
  8
SOLDER
 10
1370.000000
 20
2910.000000
 40
0.000000
 41
0.000000
 42
0.000000
  0
VERTEX
  8
SOLDER
 10
1370.000000
 20
2940.000000
 40
0.000000
 41
0.000000
 42
0.000000
  0
VERTEX
  8
SOLDER
 10
1425.000000
 20
2940.000000
 40
0.000000
 41
0.000000
 42
0.000000
  0
VERTEX
  8
SOLDER
 10
1425.000000
 20
2910.000000
 40
0.000000
 41
0.000000
 42
0.000000
  0
SEQEND
  0
POLYLINE
  8
SOLDER
 66
1
 70
1
 40
0.000000
 41
0.000000
 39
0.000000
  0
VERTEX
  8
SOLDER
 10
1370.000000
 20
2860.000000
 40
0.000000
 41
0.000000
 42
0.000000
  0
VERTEX
  8
SOLDER
 10
1370.000000
 20
2890.000000
 40
0.000000
 41
0.000000
 42
0.000000
  0
VERTEX
  8
SOLDER
 10
1425.000000
 20
2890.000000
 40
0.000000
 41
0.000000
 42
0.000000
  0
VERTEX
  8
SOLDER
 10
1425.000000
 20
2860.000000
 40
0.000000
 41
0.000000
 42
0.000000
  0
SEQEND
  0
POLYLINE
  8
SOLDER
 66
1
 70
1
 40
0.000000
 41
0.000000
 39
0.000000
  0
VERTEX
  8
SOLDER
 10
1370.000000
 20
2960.000000
 40
0.000000
 41
0.000000
 42
0.000000
  0
VERTEX
  8
SOLDER
 10
1370.000000
 20
2990.000000
 40
0.000000
 41
0.000000
 42
0.000000
  0
VERTEX
  8
SOLDER
 10
1425.000000
 20
2990.000000
 40
0.000000
 41
0.000000
 42
0.000000
  0
VERTEX
  8
SOLDER
 10
1425.000000
 20
2960.000000
 40
0.000000
 41
0.000000
 42
0.000000
  0
SEQEND
  0
POLYLINE
  8
SOLDER
 66
1
 70
1
 40
0.000000
 41
0.000000
 39
0.000000
  0
VERTEX
  8
SOLDER
 10
1370.000000
 20
3060.000000
 40
0.000000
 41
0.000000
 42
0.000000
  0
VERTEX
  8
SOLDER
 10
1370.000000
 20
3090.000000
 40
0.000000
 41
0.000000
 42
0.000000
  0
VERTEX
  8
SOLDER
 10
1425.000000
 20
3090.000000
 40
0.000000
 41
0.000000
 42
0.000000
  0
VERTEX
  8
SOLDER
 10
1425.000000
 20
3060.000000
 40
0.000000
 41
0.000000
 42
0.000000
  0
SEQEND
  0
POLYLINE
  8
SOLDER
 66
1
 70
1
 40
0.000000
 41
0.000000
 39
0.000000
  0
VERTEX
  8
SOLDER
 10
1370.000000
 20
3010.000000
 40
0.000000
 41
0.000000
 42
0.000000
  0
VERTEX
  8
SOLDER
 10
1370.000000
 20
3040.000000
 40
0.000000
 41
0.000000
 42
0.000000
  0
VERTEX
  8
SOLDER
 10
1425.000000
 20
3040.000000
 40
0.000000
 41
0.000000
 42
0.000000
  0
VERTEX
  8
SOLDER
 10
1425.000000
 20
3010.000000
 40
0.000000
 41
0.000000
 42
0.000000
  0
SEQEND
  0
POLYLINE
  8
SOLDER
 66
1
 70
1
 40
0.000000
 41
0.000000
 39
0.000000
  0
VERTEX
  8
SOLDER
 10
1370.000000
 20
3110.000000
 40
0.000000
 41
0.000000
 42
0.000000
  0
VERTEX
  8
SOLDER
 10
1370.000000
 20
3140.000000
 40
0.000000
 41
0.000000
 42
0.000000
  0
VERTEX
  8
SOLDER
 10
1425.000000
 20
3140.000000
 40
0.000000
 41
0.000000
 42
0.000000
  0
VERTEX
  8
SOLDER
 10
1425.000000
 20
3110.000000
 40
0.000000
 41
0.000000
 42
0.000000
  0
SEQEND
  0
POLYLINE
  8
SOLDER
 66
1
 70
1
 40
0.000000
 41
0.000000
 39
0.000000
  0
VERTEX
  8
SOLDER
 10
1370.000000
 20
3210.000000
 40
0.000000
 41
0.000000
 42
0.000000
  0
VERTEX
  8
SOLDER
 10
1370.000000
 20
3240.000000
 40
0.000000
 41
0.000000
 42
0.000000
  0
VERTEX
  8
SOLDER
 10
1425.000000
 20
3240.000000
 40
0.000000
 41
0.000000
 42
0.000000
  0
VERTEX
  8
SOLDER
 10
1425.000000
 20
3210.000000
 40
0.000000
 41
0.000000
 42
0.000000
  0
SEQEND
  0
POLYLINE
  8
SOLDER
 66
1
 70
1
 40
0.000000
 41
0.000000
 39
0.000000
  0
VERTEX
  8
SOLDER
 10
1370.000000
 20
3160.000000
 40
0.000000
 41
0.000000
 42
0.000000
  0
VERTEX
  8
SOLDER
 10
1370.000000
 20
3190.000000
 40
0.000000
 41
0.000000
 42
0.000000
  0
VERTEX
  8
SOLDER
 10
1425.000000
 20
3190.000000
 40
0.000000
 41
0.000000
 42
0.000000
  0
VERTEX
  8
SOLDER
 10
1425.000000
 20
3160.000000
 40
0.000000
 41
0.000000
 42
0.000000
  0
SEQEND
  0
POLYLINE
  8
SOLDER
 66
1
 70
1
 40
0.000000
 41
0.000000
 39
0.000000
  0
VERTEX
  8
SOLDER
 10
550.000000
 20
3240.000000
 40
0.000000
 41
0.000000
 42
0.000000
  0
VERTEX
  8
SOLDER
 10
550.000000
 20
3210.000000
 40
0.000000
 41
0.000000
 42
0.000000
  0
VERTEX
  8
SOLDER
 10
495.000000
 20
3210.000000
 40
0.000000
 41
0.000000
 42
0.000000
  0
VERTEX
  8
SOLDER
 10
495.000000
 20
3240.000000
 40
0.000000
 41
0.000000
 42
0.000000
  0
SEQEND
  0
POLYLINE
  8
SOLDER
 66
1
 70
1
 40
0.000000
 41
0.000000
 39
0.000000
  0
VERTEX
  8
SOLDER
 10
550.000000
 20
3190.000000
 40
0.000000
 41
0.000000
 42
0.000000
  0
VERTEX
  8
SOLDER
 10
550.000000
 20
3160.000000
 40
0.000000
 41
0.000000
 42
0.000000
  0
VERTEX
  8
SOLDER
 10
495.000000
 20
3160.000000
 40
0.000000
 41
0.000000
 42
0.000000
  0
VERTEX
  8
SOLDER
 10
495.000000
 20
3190.000000
 40
0.000000
 41
0.000000
 42
0.000000
  0
SEQEND
  0
POLYLINE
  8
SOLDER
 66
1
 70
1
 40
0.000000
 41
0.000000
 39
0.000000
  0
VERTEX
  8
SOLDER
 10
550.000000
 20
3140.000000
 40
0.000000
 41
0.000000
 42
0.000000
  0
VERTEX
  8
SOLDER
 10
550.000000
 20
3110.000000
 40
0.000000
 41
0.000000
 42
0.000000
  0
VERTEX
  8
SOLDER
 10
495.000000
 20
3110.000000
 40
0.000000
 41
0.000000
 42
0.000000
  0
VERTEX
  8
SOLDER
 10
495.000000
 20
3140.000000
 40
0.000000
 41
0.000000
 42
0.000000
  0
SEQEND
  0
POLYLINE
  8
SOLDER
 66
1
 70
1
 40
0.000000
 41
0.000000
 39
0.000000
  0
VERTEX
  8
SOLDER
 10
550.000000
 20
3090.000000
 40
0.000000
 41
0.000000
 42
0.000000
  0
VERTEX
  8
SOLDER
 10
550.000000
 20
3060.000000
 40
0.000000
 41
0.000000
 42
0.000000
  0
VERTEX
  8
SOLDER
 10
495.000000
 20
3060.000000
 40
0.000000
 41
0.000000
 42
0.000000
  0
VERTEX
  8
SOLDER
 10
495.000000
 20
3090.000000
 40
0.000000
 41
0.000000
 42
0.000000
  0
SEQEND
  0
POLYLINE
  8
SOLDER
 66
1
 70
1
 40
0.000000
 41
0.000000
 39
0.000000
  0
VERTEX
  8
SOLDER
 10
550.000000
 20
3040.000000
 40
0.000000
 41
0.000000
 42
0.000000
  0
VERTEX
  8
SOLDER
 10
550.000000
 20
3010.000000
 40
0.000000
 41
0.000000
 42
0.000000
  0
VERTEX
  8
SOLDER
 10
495.000000
 20
3010.000000
 40
0.000000
 41
0.000000
 42
0.000000
  0
VERTEX
  8
SOLDER
 10
495.000000
 20
3040.000000
 40
0.000000
 41
0.000000
 42
0.000000
  0
SEQEND
  0
POLYLINE
  8
SOLDER
 66
1
 70
1
 40
0.000000
 41
0.000000
 39
0.000000
  0
VERTEX
  8
SOLDER
 10
550.000000
 20
2990.000000
 40
0.000000
 41
0.000000
 42
0.000000
  0
VERTEX
  8
SOLDER
 10
550.000000
 20
2960.000000
 40
0.000000
 41
0.000000
 42
0.000000
  0
VERTEX
  8
SOLDER
 10
495.000000
 20
2960.000000
 40
0.000000
 41
0.000000
 42
0.000000
  0
VERTEX
  8
SOLDER
 10
495.000000
 20
2990.000000
 40
0.000000
 41
0.000000
 42
0.000000
  0
SEQEND
  0
POLYLINE
  8
SOLDER
 66
1
 70
1
 40
0.000000
 41
0.000000
 39
0.000000
  0
VERTEX
  8
SOLDER
 10
550.000000
 20
2940.000000
 40
0.000000
 41
0.000000
 42
0.000000
  0
VERTEX
  8
SOLDER
 10
550.000000
 20
2910.000000
 40
0.000000
 41
0.000000
 42
0.000000
  0
VERTEX
  8
SOLDER
 10
495.000000
 20
2910.000000
 40
0.000000
 41
0.000000
 42
0.000000
  0
VERTEX
  8
SOLDER
 10
495.000000
 20
2940.000000
 40
0.000000
 41
0.000000
 42
0.000000
  0
SEQEND
  0
POLYLINE
  8
SOLDER
 66
1
 70
1
 40
0.000000
 41
0.000000
 39
0.000000
  0
VERTEX
  8
SOLDER
 10
550.000000
 20
2890.000000
 40
0.000000
 41
0.000000
 42
0.000000
  0
VERTEX
  8
SOLDER
 10
550.000000
 20
2860.000000
 40
0.000000
 41
0.000000
 42
0.000000
  0
VERTEX
  8
SOLDER
 10
495.000000
 20
2860.000000
 40
0.000000
 41
0.000000
 42
0.000000
  0
VERTEX
  8
SOLDER
 10
495.000000
 20
2890.000000
 40
0.000000
 41
0.000000
 42
0.000000
  0
SEQEND
  0
POLYLINE
  8
SOLDER
 66
1
 70
1
 40
0.000000
 41
0.000000
 39
0.000000
  0
VERTEX
  8
SOLDER
 10
355.000000
 20
3190.000000
 40
0.000000
 41
0.000000
 42
0.000000
  0
VERTEX
  8
SOLDER
 10
355.000000
 20
3160.000000
 40
0.000000
 41
0.000000
 42
0.000000
  0
VERTEX
  8
SOLDER
 10
300.000000
 20
3160.000000
 40
0.000000
 41
0.000000
 42
0.000000
  0
VERTEX
  8
SOLDER
 10
300.000000
 20
3190.000000
 40
0.000000
 41
0.000000
 42
0.000000
  0
SEQEND
  0
POLYLINE
  8
SOLDER
 66
1
 70
1
 40
0.000000
 41
0.000000
 39
0.000000
  0
VERTEX
  8
SOLDER
 10
355.000000
 20
3240.000000
 40
0.000000
 41
0.000000
 42
0.000000
  0
VERTEX
  8
SOLDER
 10
355.000000
 20
3210.000000
 40
0.000000
 41
0.000000
 42
0.000000
  0
VERTEX
  8
SOLDER
 10
300.000000
 20
3210.000000
 40
0.000000
 41
0.000000
 42
0.000000
  0
VERTEX
  8
SOLDER
 10
300.000000
 20
3240.000000
 40
0.000000
 41
0.000000
 42
0.000000
  0
SEQEND
  0
POLYLINE
  8
SOLDER
 66
1
 70
1
 40
0.000000
 41
0.000000
 39
0.000000
  0
VERTEX
  8
SOLDER
 10
355.000000
 20
3140.000000
 40
0.000000
 41
0.000000
 42
0.000000
  0
VERTEX
  8
SOLDER
 10
355.000000
 20
3110.000000
 40
0.000000
 41
0.000000
 42
0.000000
  0
VERTEX
  8
SOLDER
 10
300.000000
 20
3110.000000
 40
0.000000
 41
0.000000
 42
0.000000
  0
VERTEX
  8
SOLDER
 10
300.000000
 20
3140.000000
 40
0.000000
 41
0.000000
 42
0.000000
  0
SEQEND
  0
POLYLINE
  8
SOLDER
 66
1
 70
1
 40
0.000000
 41
0.000000
 39
0.000000
  0
VERTEX
  8
SOLDER
 10
355.000000
 20
3040.000000
 40
0.000000
 41
0.000000
 42
0.000000
  0
VERTEX
  8
SOLDER
 10
355.000000
 20
3010.000000
 40
0.000000
 41
0.000000
 42
0.000000
  0
VERTEX
  8
SOLDER
 10
300.000000
 20
3010.000000
 40
0.000000
 41
0.000000
 42
0.000000
  0
VERTEX
  8
SOLDER
 10
300.000000
 20
3040.000000
 40
0.000000
 41
0.000000
 42
0.000000
  0
SEQEND
  0
POLYLINE
  8
SOLDER
 66
1
 70
1
 40
0.000000
 41
0.000000
 39
0.000000
  0
VERTEX
  8
SOLDER
 10
355.000000
 20
3090.000000
 40
0.000000
 41
0.000000
 42
0.000000
  0
VERTEX
  8
SOLDER
 10
355.000000
 20
3060.000000
 40
0.000000
 41
0.000000
 42
0.000000
  0
VERTEX
  8
SOLDER
 10
300.000000
 20
3060.000000
 40
0.000000
 41
0.000000
 42
0.000000
  0
VERTEX
  8
SOLDER
 10
300.000000
 20
3090.000000
 40
0.000000
 41
0.000000
 42
0.000000
  0
SEQEND
  0
POLYLINE
  8
SOLDER
 66
1
 70
1
 40
0.000000
 41
0.000000
 39
0.000000
  0
VERTEX
  8
SOLDER
 10
355.000000
 20
2990.000000
 40
0.000000
 41
0.000000
 42
0.000000
  0
VERTEX
  8
SOLDER
 10
355.000000
 20
2960.000000
 40
0.000000
 41
0.000000
 42
0.000000
  0
VERTEX
  8
SOLDER
 10
300.000000
 20
2960.000000
 40
0.000000
 41
0.000000
 42
0.000000
  0
VERTEX
  8
SOLDER
 10
300.000000
 20
2990.000000
 40
0.000000
 41
0.000000
 42
0.000000
  0
SEQEND
  0
POLYLINE
  8
SOLDER
 66
1
 70
1
 40
0.000000
 41
0.000000
 39
0.000000
  0
VERTEX
  8
SOLDER
 10
355.000000
 20
2890.000000
 40
0.000000
 41
0.000000
 42
0.000000
  0
VERTEX
  8
SOLDER
 10
355.000000
 20
2860.000000
 40
0.000000
 41
0.000000
 42
0.000000
  0
VERTEX
  8
SOLDER
 10
300.000000
 20
2860.000000
 40
0.000000
 41
0.000000
 42
0.000000
  0
VERTEX
  8
SOLDER
 10
300.000000
 20
2890.000000
 40
0.000000
 41
0.000000
 42
0.000000
  0
SEQEND
  0
POLYLINE
  8
SOLDER
 66
1
 70
1
 40
0.000000
 41
0.000000
 39
0.000000
  0
VERTEX
  8
SOLDER
 10
355.000000
 20
2940.000000
 40
0.000000
 41
0.000000
 42
0.000000
  0
VERTEX
  8
SOLDER
 10
355.000000
 20
2910.000000
 40
0.000000
 41
0.000000
 42
0.000000
  0
VERTEX
  8
SOLDER
 10
300.000000
 20
2910.000000
 40
0.000000
 41
0.000000
 42
0.000000
  0
VERTEX
  8
SOLDER
 10
300.000000
 20
2940.000000
 40
0.000000
 41
0.000000
 42
0.000000
  0
SEQEND
  0
POLYLINE
  8
SOLDER
 66
1
 70
1
 40
0.000000
 41
0.000000
 39
0.000000
  0
VERTEX
  8
SOLDER
 10
2052.257962
 20
3004.038835
 40
0.000000
 41
0.000000
 42
0.000000
  0
VERTEX
  8
SOLDER
 10
2073.471165
 20
3025.252038
 40
0.000000
 41
0.000000
 42
0.000000
  0
VERTEX
  8
SOLDER
 10
2112.362038
 20
2986.361165
 40
0.000000
 41
0.000000
 42
0.000000
  0
VERTEX
  8
SOLDER
 10
2091.148835
 20
2965.147962
 40
0.000000
 41
0.000000
 42
0.000000
  0
SEQEND
  0
POLYLINE
  8
SOLDER
 66
1
 70
1
 40
0.000000
 41
0.000000
 39
0.000000
  0
VERTEX
  8
SOLDER
 10
2087.617962
 20
3039.388835
 40
0.000000
 41
0.000000
 42
0.000000
  0
VERTEX
  8
SOLDER
 10
2108.831165
 20
3060.602038
 40
0.000000
 41
0.000000
 42
0.000000
  0
VERTEX
  8
SOLDER
 10
2147.722038
 20
3021.711165
 40
0.000000
 41
0.000000
 42
0.000000
  0
VERTEX
  8
SOLDER
 10
2126.508835
 20
3000.497962
 40
0.000000
 41
0.000000
 42
0.000000
  0
SEQEND
  0
POLYLINE
  8
SOLDER
 66
1
 70
1
 40
0.000000
 41
0.000000
 39
0.000000
  0
VERTEX
  8
SOLDER
 10
2122.967962
 20
3074.748835
 40
0.000000
 41
0.000000
 42
0.000000
  0
VERTEX
  8
SOLDER
 10
2144.181165
 20
3095.962038
 40
0.000000
 41
0.000000
 42
0.000000
  0
VERTEX
  8
SOLDER
 10
2183.072038
 20
3057.071165
 40
0.000000
 41
0.000000
 42
0.000000
  0
VERTEX
  8
SOLDER
 10
2161.858835
 20
3035.857962
 40
0.000000
 41
0.000000
 42
0.000000
  0
SEQEND
  0
POLYLINE
  8
SOLDER
 66
1
 70
1
 40
0.000000
 41
0.000000
 39
0.000000
  0
VERTEX
  8
SOLDER
 10
2158.327962
 20
3110.108835
 40
0.000000
 41
0.000000
 42
0.000000
  0
VERTEX
  8
SOLDER
 10
2179.541165
 20
3131.322038
 40
0.000000
 41
0.000000
 42
0.000000
  0
VERTEX
  8
SOLDER
 10
2218.432038
 20
3092.431165
 40
0.000000
 41
0.000000
 42
0.000000
  0
VERTEX
  8
SOLDER
 10
2197.218835
 20
3071.217962
 40
0.000000
 41
0.000000
 42
0.000000
  0
SEQEND
  0
POLYLINE
  8
SOLDER
 66
1
 70
1
 40
0.000000
 41
0.000000
 39
0.000000
  0
VERTEX
  8
SOLDER
 10
2193.677962
 20
3145.458835
 40
0.000000
 41
0.000000
 42
0.000000
  0
VERTEX
  8
SOLDER
 10
2214.891165
 20
3166.672038
 40
0.000000
 41
0.000000
 42
0.000000
  0
VERTEX
  8
SOLDER
 10
2253.782038
 20
3127.781165
 40
0.000000
 41
0.000000
 42
0.000000
  0
VERTEX
  8
SOLDER
 10
2232.568835
 20
3106.567962
 40
0.000000
 41
0.000000
 42
0.000000
  0
SEQEND
  0
POLYLINE
  8
SOLDER
 66
1
 70
1
 40
0.000000
 41
0.000000
 39
0.000000
  0
VERTEX
  8
SOLDER
 10
2229.037962
 20
3180.818835
 40
0.000000
 41
0.000000
 42
0.000000
  0
VERTEX
  8
SOLDER
 10
2250.251165
 20
3202.032038
 40
0.000000
 41
0.000000
 42
0.000000
  0
VERTEX
  8
SOLDER
 10
2289.142038
 20
3163.141165
 40
0.000000
 41
0.000000
 42
0.000000
  0
VERTEX
  8
SOLDER
 10
2267.928835
 20
3141.927962
 40
0.000000
 41
0.000000
 42
0.000000
  0
SEQEND
  0
POLYLINE
  8
SOLDER
 66
1
 70
1
 40
0.000000
 41
0.000000
 39
0.000000
  0
VERTEX
  8
SOLDER
 10
2264.397962
 20
3216.168835
 40
0.000000
 41
0.000000
 42
0.000000
  0
VERTEX
  8
SOLDER
 10
2285.611165
 20
3237.382038
 40
0.000000
 41
0.000000
 42
0.000000
  0
VERTEX
  8
SOLDER
 10
2324.502038
 20
3198.491165
 40
0.000000
 41
0.000000
 42
0.000000
  0
VERTEX
  8
SOLDER
 10
2303.288835
 20
3177.277962
 40
0.000000
 41
0.000000
 42
0.000000
  0
SEQEND
  0
POLYLINE
  8
SOLDER
 66
1
 70
1
 40
0.000000
 41
0.000000
 39
0.000000
  0
VERTEX
  8
SOLDER
 10
2299.747962
 20
3251.528835
 40
0.000000
 41
0.000000
 42
0.000000
  0
VERTEX
  8
SOLDER
 10
2320.961165
 20
3272.742038
 40
0.000000
 41
0.000000
 42
0.000000
  0
VERTEX
  8
SOLDER
 10
2359.852038
 20
3233.851165
 40
0.000000
 41
0.000000
 42
0.000000
  0
VERTEX
  8
SOLDER
 10
2338.638835
 20
3212.637962
 40
0.000000
 41
0.000000
 42
0.000000
  0
SEQEND
  0
POLYLINE
  8
SOLDER
 66
1
 70
1
 40
0.000000
 41
0.000000
 39
0.000000
  0
VERTEX
  8
SOLDER
 10
2225.497962
 20
2901.508835
 40
0.000000
 41
0.000000
 42
0.000000
  0
VERTEX
  8
SOLDER
 10
2246.711165
 20
2922.722038
 40
0.000000
 41
0.000000
 42
0.000000
  0
VERTEX
  8
SOLDER
 10
2285.602038
 20
2883.831165
 40
0.000000
 41
0.000000
 42
0.000000
  0
VERTEX
  8
SOLDER
 10
2264.388835
 20
2862.617962
 40
0.000000
 41
0.000000
 42
0.000000
  0
SEQEND
  0
POLYLINE
  8
SOLDER
 66
1
 70
1
 40
0.000000
 41
0.000000
 39
0.000000
  0
VERTEX
  8
SOLDER
 10
2190.147962
 20
2866.148835
 40
0.000000
 41
0.000000
 42
0.000000
  0
VERTEX
  8
SOLDER
 10
2211.361165
 20
2887.362038
 40
0.000000
 41
0.000000
 42
0.000000
  0
VERTEX
  8
SOLDER
 10
2250.252038
 20
2848.471165
 40
0.000000
 41
0.000000
 42
0.000000
  0
VERTEX
  8
SOLDER
 10
2229.038835
 20
2827.257962
 40
0.000000
 41
0.000000
 42
0.000000
  0
SEQEND
  0
POLYLINE
  8
SOLDER
 66
1
 70
1
 40
0.000000
 41
0.000000
 39
0.000000
  0
VERTEX
  8
SOLDER
 10
2260.857962
 20
2936.858835
 40
0.000000
 41
0.000000
 42
0.000000
  0
VERTEX
  8
SOLDER
 10
2282.071165
 20
2958.072038
 40
0.000000
 41
0.000000
 42
0.000000
  0
VERTEX
  8
SOLDER
 10
2320.962038
 20
2919.181165
 40
0.000000
 41
0.000000
 42
0.000000
  0
VERTEX
  8
SOLDER
 10
2299.748835
 20
2897.967962
 40
0.000000
 41
0.000000
 42
0.000000
  0
SEQEND
  0
POLYLINE
  8
SOLDER
 66
1
 70
1
 40
0.000000
 41
0.000000
 39
0.000000
  0
VERTEX
  8
SOLDER
 10
2331.567962
 20
3007.568835
 40
0.000000
 41
0.000000
 42
0.000000
  0
VERTEX
  8
SOLDER
 10
2352.781165
 20
3028.782038
 40
0.000000
 41
0.000000
 42
0.000000
  0
VERTEX
  8
SOLDER
 10
2391.672038
 20
2989.891165
 40
0.000000
 41
0.000000
 42
0.000000
  0
VERTEX
  8
SOLDER
 10
2370.458835
 20
2968.677962
 40
0.000000
 41
0.000000
 42
0.000000
  0
SEQEND
  0
POLYLINE
  8
SOLDER
 66
1
 70
1
 40
0.000000
 41
0.000000
 39
0.000000
  0
VERTEX
  8
SOLDER
 10
2296.217962
 20
2972.218835
 40
0.000000
 41
0.000000
 42
0.000000
  0
VERTEX
  8
SOLDER
 10
2317.431165
 20
2993.432038
 40
0.000000
 41
0.000000
 42
0.000000
  0
VERTEX
  8
SOLDER
 10
2356.322038
 20
2954.541165
 40
0.000000
 41
0.000000
 42
0.000000
  0
VERTEX
  8
SOLDER
 10
2335.108835
 20
2933.327962
 40
0.000000
 41
0.000000
 42
0.000000
  0
SEQEND
  0
POLYLINE
  8
SOLDER
 66
1
 70
1
 40
0.000000
 41
0.000000
 39
0.000000
  0
VERTEX
  8
SOLDER
 10
2366.927962
 20
3042.928835
 40
0.000000
 41
0.000000
 42
0.000000
  0
VERTEX
  8
SOLDER
 10
2388.141165
 20
3064.142038
 40
0.000000
 41
0.000000
 42
0.000000
  0
VERTEX
  8
SOLDER
 10
2427.032038
 20
3025.251165
 40
0.000000
 41
0.000000
 42
0.000000
  0
VERTEX
  8
SOLDER
 10
2405.818835
 20
3004.037962
 40
0.000000
 41
0.000000
 42
0.000000
  0
SEQEND
  0
POLYLINE
  8
SOLDER
 66
1
 70
1
 40
0.000000
 41
0.000000
 39
0.000000
  0
VERTEX
  8
SOLDER
 10
2437.637962
 20
3113.638835
 40
0.000000
 41
0.000000
 42
0.000000
  0
VERTEX
  8
SOLDER
 10
2458.851165
 20
3134.852038
 40
0.000000
 41
0.000000
 42
0.000000
  0
VERTEX
  8
SOLDER
 10
2497.742038
 20
3095.961165
 40
0.000000
 41
0.000000
 42
0.000000
  0
VERTEX
  8
SOLDER
 10
2476.528835
 20
3074.747962
 40
0.000000
 41
0.000000
 42
0.000000
  0
SEQEND
  0
POLYLINE
  8
SOLDER
 66
1
 70
1
 40
0.000000
 41
0.000000
 39
0.000000
  0
VERTEX
  8
SOLDER
 10
2402.277962
 20
3078.288835
 40
0.000000
 41
0.000000
 42
0.000000
  0
VERTEX
  8
SOLDER
 10
2423.491165
 20
3099.502038
 40
0.000000
 41
0.000000
 42
0.000000
  0
VERTEX
  8
SOLDER
 10
2462.382038
 20
3060.611165
 40
0.000000
 41
0.000000
 42
0.000000
  0
VERTEX
  8
SOLDER
 10
2441.168835
 20
3039.397962
 40
0.000000
 41
0.000000
 42
0.000000
  0
SEQEND
  0
POLYLINE
  8
SOLDER
 66
1
 70
1
 40
0.000000
 41
0.000000
 39
0.000000
  0
VERTEX
  8
SOLDER
 10
1665.000000
 20
3355.000000
 40
0.000000
 41
0.000000
 42
0.000000
  0
VERTEX
  8
SOLDER
 10
1665.000000
 20
3385.000000
 40
0.000000
 41
0.000000
 42
0.000000
  0
VERTEX
  8
SOLDER
 10
1720.000000
 20
3385.000000
 40
0.000000
 41
0.000000
 42
0.000000
  0
VERTEX
  8
SOLDER
 10
1720.000000
 20
3355.000000
 40
0.000000
 41
0.000000
 42
0.000000
  0
SEQEND
  0
POLYLINE
  8
SOLDER
 66
1
 70
1
 40
0.000000
 41
0.000000
 39
0.000000
  0
VERTEX
  8
SOLDER
 10
1665.000000
 20
3405.000000
 40
0.000000
 41
0.000000
 42
0.000000
  0
VERTEX
  8
SOLDER
 10
1665.000000
 20
3435.000000
 40
0.000000
 41
0.000000
 42
0.000000
  0
VERTEX
  8
SOLDER
 10
1720.000000
 20
3435.000000
 40
0.000000
 41
0.000000
 42
0.000000
  0
VERTEX
  8
SOLDER
 10
1720.000000
 20
3405.000000
 40
0.000000
 41
0.000000
 42
0.000000
  0
SEQEND
  0
POLYLINE
  8
SOLDER
 66
1
 70
1
 40
0.000000
 41
0.000000
 39
0.000000
  0
VERTEX
  8
SOLDER
 10
1665.000000
 20
3455.000000
 40
0.000000
 41
0.000000
 42
0.000000
  0
VERTEX
  8
SOLDER
 10
1665.000000
 20
3485.000000
 40
0.000000
 41
0.000000
 42
0.000000
  0
VERTEX
  8
SOLDER
 10
1720.000000
 20
3485.000000
 40
0.000000
 41
0.000000
 42
0.000000
  0
VERTEX
  8
SOLDER
 10
1720.000000
 20
3455.000000
 40
0.000000
 41
0.000000
 42
0.000000
  0
SEQEND
  0
POLYLINE
  8
SOLDER
 66
1
 70
1
 40
0.000000
 41
0.000000
 39
0.000000
  0
VERTEX
  8
SOLDER
 10
1665.000000
 20
3505.000000
 40
0.000000
 41
0.000000
 42
0.000000
  0
VERTEX
  8
SOLDER
 10
1665.000000
 20
3535.000000
 40
0.000000
 41
0.000000
 42
0.000000
  0
VERTEX
  8
SOLDER
 10
1720.000000
 20
3535.000000
 40
0.000000
 41
0.000000
 42
0.000000
  0
VERTEX
  8
SOLDER
 10
1720.000000
 20
3505.000000
 40
0.000000
 41
0.000000
 42
0.000000
  0
SEQEND
  0
POLYLINE
  8
SOLDER
 66
1
 70
1
 40
0.000000
 41
0.000000
 39
0.000000
  0
VERTEX
  8
SOLDER
 10
1665.000000
 20
3555.000000
 40
0.000000
 41
0.000000
 42
0.000000
  0
VERTEX
  8
SOLDER
 10
1665.000000
 20
3585.000000
 40
0.000000
 41
0.000000
 42
0.000000
  0
VERTEX
  8
SOLDER
 10
1720.000000
 20
3585.000000
 40
0.000000
 41
0.000000
 42
0.000000
  0
VERTEX
  8
SOLDER
 10
1720.000000
 20
3555.000000
 40
0.000000
 41
0.000000
 42
0.000000
  0
SEQEND
  0
POLYLINE
  8
SOLDER
 66
1
 70
1
 40
0.000000
 41
0.000000
 39
0.000000
  0
VERTEX
  8
SOLDER
 10
1665.000000
 20
3605.000000
 40
0.000000
 41
0.000000
 42
0.000000
  0
VERTEX
  8
SOLDER
 10
1665.000000
 20
3635.000000
 40
0.000000
 41
0.000000
 42
0.000000
  0
VERTEX
  8
SOLDER
 10
1720.000000
 20
3635.000000
 40
0.000000
 41
0.000000
 42
0.000000
  0
VERTEX
  8
SOLDER
 10
1720.000000
 20
3605.000000
 40
0.000000
 41
0.000000
 42
0.000000
  0
SEQEND
  0
POLYLINE
  8
SOLDER
 66
1
 70
1
 40
0.000000
 41
0.000000
 39
0.000000
  0
VERTEX
  8
SOLDER
 10
1665.000000
 20
3655.000000
 40
0.000000
 41
0.000000
 42
0.000000
  0
VERTEX
  8
SOLDER
 10
1665.000000
 20
3685.000000
 40
0.000000
 41
0.000000
 42
0.000000
  0
VERTEX
  8
SOLDER
 10
1720.000000
 20
3685.000000
 40
0.000000
 41
0.000000
 42
0.000000
  0
VERTEX
  8
SOLDER
 10
1720.000000
 20
3655.000000
 40
0.000000
 41
0.000000
 42
0.000000
  0
SEQEND
  0
POLYLINE
  8
SOLDER
 66
1
 70
1
 40
0.000000
 41
0.000000
 39
0.000000
  0
VERTEX
  8
SOLDER
 10
1665.000000
 20
3705.000000
 40
0.000000
 41
0.000000
 42
0.000000
  0
VERTEX
  8
SOLDER
 10
1665.000000
 20
3735.000000
 40
0.000000
 41
0.000000
 42
0.000000
  0
VERTEX
  8
SOLDER
 10
1720.000000
 20
3735.000000
 40
0.000000
 41
0.000000
 42
0.000000
  0
VERTEX
  8
SOLDER
 10
1720.000000
 20
3705.000000
 40
0.000000
 41
0.000000
 42
0.000000
  0
SEQEND
  0
POLYLINE
  8
SOLDER
 66
1
 70
1
 40
0.000000
 41
0.000000
 39
0.000000
  0
VERTEX
  8
SOLDER
 10
1860.000000
 20
3405.000000
 40
0.000000
 41
0.000000
 42
0.000000
  0
VERTEX
  8
SOLDER
 10
1860.000000
 20
3435.000000
 40
0.000000
 41
0.000000
 42
0.000000
  0
VERTEX
  8
SOLDER
 10
1915.000000
 20
3435.000000
 40
0.000000
 41
0.000000
 42
0.000000
  0
VERTEX
  8
SOLDER
 10
1915.000000
 20
3405.000000
 40
0.000000
 41
0.000000
 42
0.000000
  0
SEQEND
  0
POLYLINE
  8
SOLDER
 66
1
 70
1
 40
0.000000
 41
0.000000
 39
0.000000
  0
VERTEX
  8
SOLDER
 10
1860.000000
 20
3355.000000
 40
0.000000
 41
0.000000
 42
0.000000
  0
VERTEX
  8
SOLDER
 10
1860.000000
 20
3385.000000
 40
0.000000
 41
0.000000
 42
0.000000
  0
VERTEX
  8
SOLDER
 10
1915.000000
 20
3385.000000
 40
0.000000
 41
0.000000
 42
0.000000
  0
VERTEX
  8
SOLDER
 10
1915.000000
 20
3355.000000
 40
0.000000
 41
0.000000
 42
0.000000
  0
SEQEND
  0
POLYLINE
  8
SOLDER
 66
1
 70
1
 40
0.000000
 41
0.000000
 39
0.000000
  0
VERTEX
  8
SOLDER
 10
1860.000000
 20
3455.000000
 40
0.000000
 41
0.000000
 42
0.000000
  0
VERTEX
  8
SOLDER
 10
1860.000000
 20
3485.000000
 40
0.000000
 41
0.000000
 42
0.000000
  0
VERTEX
  8
SOLDER
 10
1915.000000
 20
3485.000000
 40
0.000000
 41
0.000000
 42
0.000000
  0
VERTEX
  8
SOLDER
 10
1915.000000
 20
3455.000000
 40
0.000000
 41
0.000000
 42
0.000000
  0
SEQEND
  0
POLYLINE
  8
SOLDER
 66
1
 70
1
 40
0.000000
 41
0.000000
 39
0.000000
  0
VERTEX
  8
SOLDER
 10
1860.000000
 20
3555.000000
 40
0.000000
 41
0.000000
 42
0.000000
  0
VERTEX
  8
SOLDER
 10
1860.000000
 20
3585.000000
 40
0.000000
 41
0.000000
 42
0.000000
  0
VERTEX
  8
SOLDER
 10
1915.000000
 20
3585.000000
 40
0.000000
 41
0.000000
 42
0.000000
  0
VERTEX
  8
SOLDER
 10
1915.000000
 20
3555.000000
 40
0.000000
 41
0.000000
 42
0.000000
  0
SEQEND
  0
POLYLINE
  8
SOLDER
 66
1
 70
1
 40
0.000000
 41
0.000000
 39
0.000000
  0
VERTEX
  8
SOLDER
 10
1860.000000
 20
3505.000000
 40
0.000000
 41
0.000000
 42
0.000000
  0
VERTEX
  8
SOLDER
 10
1860.000000
 20
3535.000000
 40
0.000000
 41
0.000000
 42
0.000000
  0
VERTEX
  8
SOLDER
 10
1915.000000
 20
3535.000000
 40
0.000000
 41
0.000000
 42
0.000000
  0
VERTEX
  8
SOLDER
 10
1915.000000
 20
3505.000000
 40
0.000000
 41
0.000000
 42
0.000000
  0
SEQEND
  0
POLYLINE
  8
SOLDER
 66
1
 70
1
 40
0.000000
 41
0.000000
 39
0.000000
  0
VERTEX
  8
SOLDER
 10
1860.000000
 20
3605.000000
 40
0.000000
 41
0.000000
 42
0.000000
  0
VERTEX
  8
SOLDER
 10
1860.000000
 20
3635.000000
 40
0.000000
 41
0.000000
 42
0.000000
  0
VERTEX
  8
SOLDER
 10
1915.000000
 20
3635.000000
 40
0.000000
 41
0.000000
 42
0.000000
  0
VERTEX
  8
SOLDER
 10
1915.000000
 20
3605.000000
 40
0.000000
 41
0.000000
 42
0.000000
  0
SEQEND
  0
POLYLINE
  8
SOLDER
 66
1
 70
1
 40
0.000000
 41
0.000000
 39
0.000000
  0
VERTEX
  8
SOLDER
 10
1860.000000
 20
3705.000000
 40
0.000000
 41
0.000000
 42
0.000000
  0
VERTEX
  8
SOLDER
 10
1860.000000
 20
3735.000000
 40
0.000000
 41
0.000000
 42
0.000000
  0
VERTEX
  8
SOLDER
 10
1915.000000
 20
3735.000000
 40
0.000000
 41
0.000000
 42
0.000000
  0
VERTEX
  8
SOLDER
 10
1915.000000
 20
3705.000000
 40
0.000000
 41
0.000000
 42
0.000000
  0
SEQEND
  0
POLYLINE
  8
SOLDER
 66
1
 70
1
 40
0.000000
 41
0.000000
 39
0.000000
  0
VERTEX
  8
SOLDER
 10
1860.000000
 20
3655.000000
 40
0.000000
 41
0.000000
 42
0.000000
  0
VERTEX
  8
SOLDER
 10
1860.000000
 20
3685.000000
 40
0.000000
 41
0.000000
 42
0.000000
  0
VERTEX
  8
SOLDER
 10
1915.000000
 20
3685.000000
 40
0.000000
 41
0.000000
 42
0.000000
  0
VERTEX
  8
SOLDER
 10
1915.000000
 20
3655.000000
 40
0.000000
 41
0.000000
 42
0.000000
  0
SEQEND
  0
POLYLINE
  8
SOLDER
 66
1
 70
1
 40
0.000000
 41
0.000000
 39
0.000000
  0
VERTEX
  8
SOLDER
 10
2150.000000
 20
3335.000000
 40
0.000000
 41
0.000000
 42
0.000000
  0
VERTEX
  8
SOLDER
 10
2150.000000
 20
3365.000000
 40
0.000000
 41
0.000000
 42
0.000000
  0
VERTEX
  8
SOLDER
 10
2205.000000
 20
3365.000000
 40
0.000000
 41
0.000000
 42
0.000000
  0
VERTEX
  8
SOLDER
 10
2205.000000
 20
3335.000000
 40
0.000000
 41
0.000000
 42
0.000000
  0
SEQEND
  0
POLYLINE
  8
SOLDER
 66
1
 70
1
 40
0.000000
 41
0.000000
 39
0.000000
  0
VERTEX
  8
SOLDER
 10
2150.000000
 20
3385.000000
 40
0.000000
 41
0.000000
 42
0.000000
  0
VERTEX
  8
SOLDER
 10
2150.000000
 20
3415.000000
 40
0.000000
 41
0.000000
 42
0.000000
  0
VERTEX
  8
SOLDER
 10
2205.000000
 20
3415.000000
 40
0.000000
 41
0.000000
 42
0.000000
  0
VERTEX
  8
SOLDER
 10
2205.000000
 20
3385.000000
 40
0.000000
 41
0.000000
 42
0.000000
  0
SEQEND
  0
POLYLINE
  8
SOLDER
 66
1
 70
1
 40
0.000000
 41
0.000000
 39
0.000000
  0
VERTEX
  8
SOLDER
 10
2150.000000
 20
3435.000000
 40
0.000000
 41
0.000000
 42
0.000000
  0
VERTEX
  8
SOLDER
 10
2150.000000
 20
3465.000000
 40
0.000000
 41
0.000000
 42
0.000000
  0
VERTEX
  8
SOLDER
 10
2205.000000
 20
3465.000000
 40
0.000000
 41
0.000000
 42
0.000000
  0
VERTEX
  8
SOLDER
 10
2205.000000
 20
3435.000000
 40
0.000000
 41
0.000000
 42
0.000000
  0
SEQEND
  0
POLYLINE
  8
SOLDER
 66
1
 70
1
 40
0.000000
 41
0.000000
 39
0.000000
  0
VERTEX
  8
SOLDER
 10
2150.000000
 20
3485.000000
 40
0.000000
 41
0.000000
 42
0.000000
  0
VERTEX
  8
SOLDER
 10
2150.000000
 20
3515.000000
 40
0.000000
 41
0.000000
 42
0.000000
  0
VERTEX
  8
SOLDER
 10
2205.000000
 20
3515.000000
 40
0.000000
 41
0.000000
 42
0.000000
  0
VERTEX
  8
SOLDER
 10
2205.000000
 20
3485.000000
 40
0.000000
 41
0.000000
 42
0.000000
  0
SEQEND
  0
POLYLINE
  8
SOLDER
 66
1
 70
1
 40
0.000000
 41
0.000000
 39
0.000000
  0
VERTEX
  8
SOLDER
 10
2150.000000
 20
3535.000000
 40
0.000000
 41
0.000000
 42
0.000000
  0
VERTEX
  8
SOLDER
 10
2150.000000
 20
3565.000000
 40
0.000000
 41
0.000000
 42
0.000000
  0
VERTEX
  8
SOLDER
 10
2205.000000
 20
3565.000000
 40
0.000000
 41
0.000000
 42
0.000000
  0
VERTEX
  8
SOLDER
 10
2205.000000
 20
3535.000000
 40
0.000000
 41
0.000000
 42
0.000000
  0
SEQEND
  0
POLYLINE
  8
SOLDER
 66
1
 70
1
 40
0.000000
 41
0.000000
 39
0.000000
  0
VERTEX
  8
SOLDER
 10
2150.000000
 20
3585.000000
 40
0.000000
 41
0.000000
 42
0.000000
  0
VERTEX
  8
SOLDER
 10
2150.000000
 20
3615.000000
 40
0.000000
 41
0.000000
 42
0.000000
  0
VERTEX
  8
SOLDER
 10
2205.000000
 20
3615.000000
 40
0.000000
 41
0.000000
 42
0.000000
  0
VERTEX
  8
SOLDER
 10
2205.000000
 20
3585.000000
 40
0.000000
 41
0.000000
 42
0.000000
  0
SEQEND
  0
POLYLINE
  8
SOLDER
 66
1
 70
1
 40
0.000000
 41
0.000000
 39
0.000000
  0
VERTEX
  8
SOLDER
 10
2150.000000
 20
3635.000000
 40
0.000000
 41
0.000000
 42
0.000000
  0
VERTEX
  8
SOLDER
 10
2150.000000
 20
3665.000000
 40
0.000000
 41
0.000000
 42
0.000000
  0
VERTEX
  8
SOLDER
 10
2205.000000
 20
3665.000000
 40
0.000000
 41
0.000000
 42
0.000000
  0
VERTEX
  8
SOLDER
 10
2205.000000
 20
3635.000000
 40
0.000000
 41
0.000000
 42
0.000000
  0
SEQEND
  0
POLYLINE
  8
SOLDER
 66
1
 70
1
 40
0.000000
 41
0.000000
 39
0.000000
  0
VERTEX
  8
SOLDER
 10
2150.000000
 20
3685.000000
 40
0.000000
 41
0.000000
 42
0.000000
  0
VERTEX
  8
SOLDER
 10
2150.000000
 20
3715.000000
 40
0.000000
 41
0.000000
 42
0.000000
  0
VERTEX
  8
SOLDER
 10
2205.000000
 20
3715.000000
 40
0.000000
 41
0.000000
 42
0.000000
  0
VERTEX
  8
SOLDER
 10
2205.000000
 20
3685.000000
 40
0.000000
 41
0.000000
 42
0.000000
  0
SEQEND
  0
POLYLINE
  8
SOLDER
 66
1
 70
1
 40
0.000000
 41
0.000000
 39
0.000000
  0
VERTEX
  8
SOLDER
 10
2345.000000
 20
3385.000000
 40
0.000000
 41
0.000000
 42
0.000000
  0
VERTEX
  8
SOLDER
 10
2345.000000
 20
3415.000000
 40
0.000000
 41
0.000000
 42
0.000000
  0
VERTEX
  8
SOLDER
 10
2400.000000
 20
3415.000000
 40
0.000000
 41
0.000000
 42
0.000000
  0
VERTEX
  8
SOLDER
 10
2400.000000
 20
3385.000000
 40
0.000000
 41
0.000000
 42
0.000000
  0
SEQEND
  0
POLYLINE
  8
SOLDER
 66
1
 70
1
 40
0.000000
 41
0.000000
 39
0.000000
  0
VERTEX
  8
SOLDER
 10
2345.000000
 20
3335.000000
 40
0.000000
 41
0.000000
 42
0.000000
  0
VERTEX
  8
SOLDER
 10
2345.000000
 20
3365.000000
 40
0.000000
 41
0.000000
 42
0.000000
  0
VERTEX
  8
SOLDER
 10
2400.000000
 20
3365.000000
 40
0.000000
 41
0.000000
 42
0.000000
  0
VERTEX
  8
SOLDER
 10
2400.000000
 20
3335.000000
 40
0.000000
 41
0.000000
 42
0.000000
  0
SEQEND
  0
POLYLINE
  8
SOLDER
 66
1
 70
1
 40
0.000000
 41
0.000000
 39
0.000000
  0
VERTEX
  8
SOLDER
 10
2345.000000
 20
3435.000000
 40
0.000000
 41
0.000000
 42
0.000000
  0
VERTEX
  8
SOLDER
 10
2345.000000
 20
3465.000000
 40
0.000000
 41
0.000000
 42
0.000000
  0
VERTEX
  8
SOLDER
 10
2400.000000
 20
3465.000000
 40
0.000000
 41
0.000000
 42
0.000000
  0
VERTEX
  8
SOLDER
 10
2400.000000
 20
3435.000000
 40
0.000000
 41
0.000000
 42
0.000000
  0
SEQEND
  0
POLYLINE
  8
SOLDER
 66
1
 70
1
 40
0.000000
 41
0.000000
 39
0.000000
  0
VERTEX
  8
SOLDER
 10
2345.000000
 20
3535.000000
 40
0.000000
 41
0.000000
 42
0.000000
  0
VERTEX
  8
SOLDER
 10
2345.000000
 20
3565.000000
 40
0.000000
 41
0.000000
 42
0.000000
  0
VERTEX
  8
SOLDER
 10
2400.000000
 20
3565.000000
 40
0.000000
 41
0.000000
 42
0.000000
  0
VERTEX
  8
SOLDER
 10
2400.000000
 20
3535.000000
 40
0.000000
 41
0.000000
 42
0.000000
  0
SEQEND
  0
POLYLINE
  8
SOLDER
 66
1
 70
1
 40
0.000000
 41
0.000000
 39
0.000000
  0
VERTEX
  8
SOLDER
 10
2345.000000
 20
3485.000000
 40
0.000000
 41
0.000000
 42
0.000000
  0
VERTEX
  8
SOLDER
 10
2345.000000
 20
3515.000000
 40
0.000000
 41
0.000000
 42
0.000000
  0
VERTEX
  8
SOLDER
 10
2400.000000
 20
3515.000000
 40
0.000000
 41
0.000000
 42
0.000000
  0
VERTEX
  8
SOLDER
 10
2400.000000
 20
3485.000000
 40
0.000000
 41
0.000000
 42
0.000000
  0
SEQEND
  0
POLYLINE
  8
SOLDER
 66
1
 70
1
 40
0.000000
 41
0.000000
 39
0.000000
  0
VERTEX
  8
SOLDER
 10
2345.000000
 20
3585.000000
 40
0.000000
 41
0.000000
 42
0.000000
  0
VERTEX
  8
SOLDER
 10
2345.000000
 20
3615.000000
 40
0.000000
 41
0.000000
 42
0.000000
  0
VERTEX
  8
SOLDER
 10
2400.000000
 20
3615.000000
 40
0.000000
 41
0.000000
 42
0.000000
  0
VERTEX
  8
SOLDER
 10
2400.000000
 20
3585.000000
 40
0.000000
 41
0.000000
 42
0.000000
  0
SEQEND
  0
POLYLINE
  8
SOLDER
 66
1
 70
1
 40
0.000000
 41
0.000000
 39
0.000000
  0
VERTEX
  8
SOLDER
 10
2345.000000
 20
3685.000000
 40
0.000000
 41
0.000000
 42
0.000000
  0
VERTEX
  8
SOLDER
 10
2345.000000
 20
3715.000000
 40
0.000000
 41
0.000000
 42
0.000000
  0
VERTEX
  8
SOLDER
 10
2400.000000
 20
3715.000000
 40
0.000000
 41
0.000000
 42
0.000000
  0
VERTEX
  8
SOLDER
 10
2400.000000
 20
3685.000000
 40
0.000000
 41
0.000000
 42
0.000000
  0
SEQEND
  0
POLYLINE
  8
SOLDER
 66
1
 70
1
 40
0.000000
 41
0.000000
 39
0.000000
  0
VERTEX
  8
SOLDER
 10
2345.000000
 20
3635.000000
 40
0.000000
 41
0.000000
 42
0.000000
  0
VERTEX
  8
SOLDER
 10
2345.000000
 20
3665.000000
 40
0.000000
 41
0.000000
 42
0.000000
  0
VERTEX
  8
SOLDER
 10
2400.000000
 20
3665.000000
 40
0.000000
 41
0.000000
 42
0.000000
  0
VERTEX
  8
SOLDER
 10
2400.000000
 20
3635.000000
 40
0.000000
 41
0.000000
 42
0.000000
  0
SEQEND
  0
POLYLINE
  8
SOLDER
 66
1
 70
1
 40
0.000000
 41
0.000000
 39
0.000000
  0
VERTEX
  8
SOLDER
 10
1650.000000
 20
2860.000000
 40
0.000000
 41
0.000000
 42
0.000000
  0
VERTEX
  8
SOLDER
 10
1650.000000
 20
2890.000000
 40
0.000000
 41
0.000000
 42
0.000000
  0
VERTEX
  8
SOLDER
 10
1705.000000
 20
2890.000000
 40
0.000000
 41
0.000000
 42
0.000000
  0
VERTEX
  8
SOLDER
 10
1705.000000
 20
2860.000000
 40
0.000000
 41
0.000000
 42
0.000000
  0
SEQEND
  0
POLYLINE
  8
SOLDER
 66
1
 70
1
 40
0.000000
 41
0.000000
 39
0.000000
  0
VERTEX
  8
SOLDER
 10
1650.000000
 20
2910.000000
 40
0.000000
 41
0.000000
 42
0.000000
  0
VERTEX
  8
SOLDER
 10
1650.000000
 20
2940.000000
 40
0.000000
 41
0.000000
 42
0.000000
  0
VERTEX
  8
SOLDER
 10
1705.000000
 20
2940.000000
 40
0.000000
 41
0.000000
 42
0.000000
  0
VERTEX
  8
SOLDER
 10
1705.000000
 20
2910.000000
 40
0.000000
 41
0.000000
 42
0.000000
  0
SEQEND
  0
POLYLINE
  8
SOLDER
 66
1
 70
1
 40
0.000000
 41
0.000000
 39
0.000000
  0
VERTEX
  8
SOLDER
 10
1650.000000
 20
2960.000000
 40
0.000000
 41
0.000000
 42
0.000000
  0
VERTEX
  8
SOLDER
 10
1650.000000
 20
2990.000000
 40
0.000000
 41
0.000000
 42
0.000000
  0
VERTEX
  8
SOLDER
 10
1705.000000
 20
2990.000000
 40
0.000000
 41
0.000000
 42
0.000000
  0
VERTEX
  8
SOLDER
 10
1705.000000
 20
2960.000000
 40
0.000000
 41
0.000000
 42
0.000000
  0
SEQEND
  0
POLYLINE
  8
SOLDER
 66
1
 70
1
 40
0.000000
 41
0.000000
 39
0.000000
  0
VERTEX
  8
SOLDER
 10
1650.000000
 20
3010.000000
 40
0.000000
 41
0.000000
 42
0.000000
  0
VERTEX
  8
SOLDER
 10
1650.000000
 20
3040.000000
 40
0.000000
 41
0.000000
 42
0.000000
  0
VERTEX
  8
SOLDER
 10
1705.000000
 20
3040.000000
 40
0.000000
 41
0.000000
 42
0.000000
  0
VERTEX
  8
SOLDER
 10
1705.000000
 20
3010.000000
 40
0.000000
 41
0.000000
 42
0.000000
  0
SEQEND
  0
POLYLINE
  8
SOLDER
 66
1
 70
1
 40
0.000000
 41
0.000000
 39
0.000000
  0
VERTEX
  8
SOLDER
 10
1650.000000
 20
3060.000000
 40
0.000000
 41
0.000000
 42
0.000000
  0
VERTEX
  8
SOLDER
 10
1650.000000
 20
3090.000000
 40
0.000000
 41
0.000000
 42
0.000000
  0
VERTEX
  8
SOLDER
 10
1705.000000
 20
3090.000000
 40
0.000000
 41
0.000000
 42
0.000000
  0
VERTEX
  8
SOLDER
 10
1705.000000
 20
3060.000000
 40
0.000000
 41
0.000000
 42
0.000000
  0
SEQEND
  0
POLYLINE
  8
SOLDER
 66
1
 70
1
 40
0.000000
 41
0.000000
 39
0.000000
  0
VERTEX
  8
SOLDER
 10
1650.000000
 20
3110.000000
 40
0.000000
 41
0.000000
 42
0.000000
  0
VERTEX
  8
SOLDER
 10
1650.000000
 20
3140.000000
 40
0.000000
 41
0.000000
 42
0.000000
  0
VERTEX
  8
SOLDER
 10
1705.000000
 20
3140.000000
 40
0.000000
 41
0.000000
 42
0.000000
  0
VERTEX
  8
SOLDER
 10
1705.000000
 20
3110.000000
 40
0.000000
 41
0.000000
 42
0.000000
  0
SEQEND
  0
POLYLINE
  8
SOLDER
 66
1
 70
1
 40
0.000000
 41
0.000000
 39
0.000000
  0
VERTEX
  8
SOLDER
 10
1650.000000
 20
3160.000000
 40
0.000000
 41
0.000000
 42
0.000000
  0
VERTEX
  8
SOLDER
 10
1650.000000
 20
3190.000000
 40
0.000000
 41
0.000000
 42
0.000000
  0
VERTEX
  8
SOLDER
 10
1705.000000
 20
3190.000000
 40
0.000000
 41
0.000000
 42
0.000000
  0
VERTEX
  8
SOLDER
 10
1705.000000
 20
3160.000000
 40
0.000000
 41
0.000000
 42
0.000000
  0
SEQEND
  0
POLYLINE
  8
SOLDER
 66
1
 70
1
 40
0.000000
 41
0.000000
 39
0.000000
  0
VERTEX
  8
SOLDER
 10
1650.000000
 20
3210.000000
 40
0.000000
 41
0.000000
 42
0.000000
  0
VERTEX
  8
SOLDER
 10
1650.000000
 20
3240.000000
 40
0.000000
 41
0.000000
 42
0.000000
  0
VERTEX
  8
SOLDER
 10
1705.000000
 20
3240.000000
 40
0.000000
 41
0.000000
 42
0.000000
  0
VERTEX
  8
SOLDER
 10
1705.000000
 20
3210.000000
 40
0.000000
 41
0.000000
 42
0.000000
  0
SEQEND
  0
POLYLINE
  8
SOLDER
 66
1
 70
1
 40
0.000000
 41
0.000000
 39
0.000000
  0
VERTEX
  8
SOLDER
 10
1845.000000
 20
2910.000000
 40
0.000000
 41
0.000000
 42
0.000000
  0
VERTEX
  8
SOLDER
 10
1845.000000
 20
2940.000000
 40
0.000000
 41
0.000000
 42
0.000000
  0
VERTEX
  8
SOLDER
 10
1900.000000
 20
2940.000000
 40
0.000000
 41
0.000000
 42
0.000000
  0
VERTEX
  8
SOLDER
 10
1900.000000
 20
2910.000000
 40
0.000000
 41
0.000000
 42
0.000000
  0
SEQEND
  0
POLYLINE
  8
SOLDER
 66
1
 70
1
 40
0.000000
 41
0.000000
 39
0.000000
  0
VERTEX
  8
SOLDER
 10
1845.000000
 20
2860.000000
 40
0.000000
 41
0.000000
 42
0.000000
  0
VERTEX
  8
SOLDER
 10
1845.000000
 20
2890.000000
 40
0.000000
 41
0.000000
 42
0.000000
  0
VERTEX
  8
SOLDER
 10
1900.000000
 20
2890.000000
 40
0.000000
 41
0.000000
 42
0.000000
  0
VERTEX
  8
SOLDER
 10
1900.000000
 20
2860.000000
 40
0.000000
 41
0.000000
 42
0.000000
  0
SEQEND
  0
POLYLINE
  8
SOLDER
 66
1
 70
1
 40
0.000000
 41
0.000000
 39
0.000000
  0
VERTEX
  8
SOLDER
 10
1845.000000
 20
2960.000000
 40
0.000000
 41
0.000000
 42
0.000000
  0
VERTEX
  8
SOLDER
 10
1845.000000
 20
2990.000000
 40
0.000000
 41
0.000000
 42
0.000000
  0
VERTEX
  8
SOLDER
 10
1900.000000
 20
2990.000000
 40
0.000000
 41
0.000000
 42
0.000000
  0
VERTEX
  8
SOLDER
 10
1900.000000
 20
2960.000000
 40
0.000000
 41
0.000000
 42
0.000000
  0
SEQEND
  0
POLYLINE
  8
SOLDER
 66
1
 70
1
 40
0.000000
 41
0.000000
 39
0.000000
  0
VERTEX
  8
SOLDER
 10
1845.000000
 20
3060.000000
 40
0.000000
 41
0.000000
 42
0.000000
  0
VERTEX
  8
SOLDER
 10
1845.000000
 20
3090.000000
 40
0.000000
 41
0.000000
 42
0.000000
  0
VERTEX
  8
SOLDER
 10
1900.000000
 20
3090.000000
 40
0.000000
 41
0.000000
 42
0.000000
  0
VERTEX
  8
SOLDER
 10
1900.000000
 20
3060.000000
 40
0.000000
 41
0.000000
 42
0.000000
  0
SEQEND
  0
POLYLINE
  8
SOLDER
 66
1
 70
1
 40
0.000000
 41
0.000000
 39
0.000000
  0
VERTEX
  8
SOLDER
 10
1845.000000
 20
3010.000000
 40
0.000000
 41
0.000000
 42
0.000000
  0
VERTEX
  8
SOLDER
 10
1845.000000
 20
3040.000000
 40
0.000000
 41
0.000000
 42
0.000000
  0
VERTEX
  8
SOLDER
 10
1900.000000
 20
3040.000000
 40
0.000000
 41
0.000000
 42
0.000000
  0
VERTEX
  8
SOLDER
 10
1900.000000
 20
3010.000000
 40
0.000000
 41
0.000000
 42
0.000000
  0
SEQEND
  0
POLYLINE
  8
SOLDER
 66
1
 70
1
 40
0.000000
 41
0.000000
 39
0.000000
  0
VERTEX
  8
SOLDER
 10
1845.000000
 20
3110.000000
 40
0.000000
 41
0.000000
 42
0.000000
  0
VERTEX
  8
SOLDER
 10
1845.000000
 20
3140.000000
 40
0.000000
 41
0.000000
 42
0.000000
  0
VERTEX
  8
SOLDER
 10
1900.000000
 20
3140.000000
 40
0.000000
 41
0.000000
 42
0.000000
  0
VERTEX
  8
SOLDER
 10
1900.000000
 20
3110.000000
 40
0.000000
 41
0.000000
 42
0.000000
  0
SEQEND
  0
POLYLINE
  8
SOLDER
 66
1
 70
1
 40
0.000000
 41
0.000000
 39
0.000000
  0
VERTEX
  8
SOLDER
 10
1845.000000
 20
3210.000000
 40
0.000000
 41
0.000000
 42
0.000000
  0
VERTEX
  8
SOLDER
 10
1845.000000
 20
3240.000000
 40
0.000000
 41
0.000000
 42
0.000000
  0
VERTEX
  8
SOLDER
 10
1900.000000
 20
3240.000000
 40
0.000000
 41
0.000000
 42
0.000000
  0
VERTEX
  8
SOLDER
 10
1900.000000
 20
3210.000000
 40
0.000000
 41
0.000000
 42
0.000000
  0
SEQEND
  0
POLYLINE
  8
SOLDER
 66
1
 70
1
 40
0.000000
 41
0.000000
 39
0.000000
  0
VERTEX
  8
SOLDER
 10
1845.000000
 20
3160.000000
 40
0.000000
 41
0.000000
 42
0.000000
  0
VERTEX
  8
SOLDER
 10
1845.000000
 20
3190.000000
 40
0.000000
 41
0.000000
 42
0.000000
  0
VERTEX
  8
SOLDER
 10
1900.000000
 20
3190.000000
 40
0.000000
 41
0.000000
 42
0.000000
  0
VERTEX
  8
SOLDER
 10
1900.000000
 20
3160.000000
 40
0.000000
 41
0.000000
 42
0.000000
  0
SEQEND
  0
POLYLINE
  8
SOLDER
 66
1
 70
1
 40
0.000000
 41
0.000000
 39
0.000000
  0
VERTEX
  8
SOLDER
 10
2097.195771
 20
1767.255953
 40
0.000000
 41
0.000000
 42
0.000000
  0
VERTEX
  8
SOLDER
 10
2112.784229
 20
1758.255953
 40
0.000000
 41
0.000000
 42
0.000000
  0
VERTEX
  8
SOLDER
 10
2075.284229
 20
1693.304047
 40
0.000000
 41
0.000000
 42
0.000000
  0
VERTEX
  8
SOLDER
 10
2059.695771
 20
1702.304047
 40
0.000000
 41
0.000000
 42
0.000000
  0
SEQEND
  0
POLYLINE
  8
SOLDER
 66
1
 70
1
 40
0.000000
 41
0.000000
 39
0.000000
  0
VERTEX
  8
SOLDER
 10
2074.685771
 20
1780.255953
 40
0.000000
 41
0.000000
 42
0.000000
  0
VERTEX
  8
SOLDER
 10
2090.274229
 20
1771.255953
 40
0.000000
 41
0.000000
 42
0.000000
  0
VERTEX
  8
SOLDER
 10
2052.774229
 20
1706.304047
 40
0.000000
 41
0.000000
 42
0.000000
  0
VERTEX
  8
SOLDER
 10
2037.185771
 20
1715.304047
 40
0.000000
 41
0.000000
 42
0.000000
  0
SEQEND
  0
POLYLINE
  8
SOLDER
 66
1
 70
1
 40
0.000000
 41
0.000000
 39
0.000000
  0
VERTEX
  8
SOLDER
 10
2052.165771
 20
1793.255953
 40
0.000000
 41
0.000000
 42
0.000000
  0
VERTEX
  8
SOLDER
 10
2067.754229
 20
1784.255953
 40
0.000000
 41
0.000000
 42
0.000000
  0
VERTEX
  8
SOLDER
 10
2030.254229
 20
1719.304047
 40
0.000000
 41
0.000000
 42
0.000000
  0
VERTEX
  8
SOLDER
 10
2014.665771
 20
1728.304047
 40
0.000000
 41
0.000000
 42
0.000000
  0
SEQEND
  0
POLYLINE
  8
SOLDER
 66
1
 70
1
 40
0.000000
 41
0.000000
 39
0.000000
  0
VERTEX
  8
SOLDER
 10
2029.645771
 20
1806.255953
 40
0.000000
 41
0.000000
 42
0.000000
  0
VERTEX
  8
SOLDER
 10
2045.234229
 20
1797.255953
 40
0.000000
 41
0.000000
 42
0.000000
  0
VERTEX
  8
SOLDER
 10
2007.734229
 20
1732.304047
 40
0.000000
 41
0.000000
 42
0.000000
  0
VERTEX
  8
SOLDER
 10
1992.145771
 20
1741.304047
 40
0.000000
 41
0.000000
 42
0.000000
  0
SEQEND
  0
POLYLINE
  8
SOLDER
 66
1
 70
1
 40
0.000000
 41
0.000000
 39
0.000000
  0
VERTEX
  8
SOLDER
 10
2007.135771
 20
1819.255953
 40
0.000000
 41
0.000000
 42
0.000000
  0
VERTEX
  8
SOLDER
 10
2022.724229
 20
1810.255953
 40
0.000000
 41
0.000000
 42
0.000000
  0
VERTEX
  8
SOLDER
 10
1985.224229
 20
1745.304047
 40
0.000000
 41
0.000000
 42
0.000000
  0
VERTEX
  8
SOLDER
 10
1969.635771
 20
1754.304047
 40
0.000000
 41
0.000000
 42
0.000000
  0
SEQEND
  0
POLYLINE
  8
SOLDER
 66
1
 70
1
 40
0.000000
 41
0.000000
 39
0.000000
  0
VERTEX
  8
SOLDER
 10
1984.615771
 20
1832.255953
 40
0.000000
 41
0.000000
 42
0.000000
  0
VERTEX
  8
SOLDER
 10
2000.204229
 20
1823.255953
 40
0.000000
 41
0.000000
 42
0.000000
  0
VERTEX
  8
SOLDER
 10
1962.704229
 20
1758.304047
 40
0.000000
 41
0.000000
 42
0.000000
  0
VERTEX
  8
SOLDER
 10
1947.115771
 20
1767.304047
 40
0.000000
 41
0.000000
 42
0.000000
  0
SEQEND
  0
POLYLINE
  8
SOLDER
 66
1
 70
1
 40
0.000000
 41
0.000000
 39
0.000000
  0
VERTEX
  8
SOLDER
 10
1962.095771
 20
1845.255953
 40
0.000000
 41
0.000000
 42
0.000000
  0
VERTEX
  8
SOLDER
 10
1977.684229
 20
1836.255953
 40
0.000000
 41
0.000000
 42
0.000000
  0
VERTEX
  8
SOLDER
 10
1940.184229
 20
1771.304047
 40
0.000000
 41
0.000000
 42
0.000000
  0
VERTEX
  8
SOLDER
 10
1924.595771
 20
1780.304047
 40
0.000000
 41
0.000000
 42
0.000000
  0
SEQEND
  0
POLYLINE
  8
SOLDER
 66
1
 70
1
 40
0.000000
 41
0.000000
 39
0.000000
  0
VERTEX
  8
SOLDER
 10
1939.585771
 20
1858.255953
 40
0.000000
 41
0.000000
 42
0.000000
  0
VERTEX
  8
SOLDER
 10
1955.174229
 20
1849.255953
 40
0.000000
 41
0.000000
 42
0.000000
  0
VERTEX
  8
SOLDER
 10
1917.674229
 20
1784.304047
 40
0.000000
 41
0.000000
 42
0.000000
  0
VERTEX
  8
SOLDER
 10
1902.085771
 20
1793.304047
 40
0.000000
 41
0.000000
 42
0.000000
  0
SEQEND
  0
POLYLINE
  8
SOLDER
 66
1
 70
1
 40
0.000000
 41
0.000000
 39
0.000000
  0
VERTEX
  8
SOLDER
 10
1917.065771
 20
1871.255953
 40
0.000000
 41
0.000000
 42
0.000000
  0
VERTEX
  8
SOLDER
 10
1932.654229
 20
1862.255953
 40
0.000000
 41
0.000000
 42
0.000000
  0
VERTEX
  8
SOLDER
 10
1895.154229
 20
1797.304047
 40
0.000000
 41
0.000000
 42
0.000000
  0
VERTEX
  8
SOLDER
 10
1879.565771
 20
1806.304047
 40
0.000000
 41
0.000000
 42
0.000000
  0
SEQEND
  0
POLYLINE
  8
SOLDER
 66
1
 70
1
 40
0.000000
 41
0.000000
 39
0.000000
  0
VERTEX
  8
SOLDER
 10
1894.545771
 20
1884.255953
 40
0.000000
 41
0.000000
 42
0.000000
  0
VERTEX
  8
SOLDER
 10
1910.134229
 20
1875.255953
 40
0.000000
 41
0.000000
 42
0.000000
  0
VERTEX
  8
SOLDER
 10
1872.634229
 20
1810.304047
 40
0.000000
 41
0.000000
 42
0.000000
  0
VERTEX
  8
SOLDER
 10
1857.045771
 20
1819.304047
 40
0.000000
 41
0.000000
 42
0.000000
  0
SEQEND
  0
POLYLINE
  8
SOLDER
 66
1
 70
1
 40
0.000000
 41
0.000000
 39
0.000000
  0
VERTEX
  8
SOLDER
 10
1872.035771
 20
1897.255953
 40
0.000000
 41
0.000000
 42
0.000000
  0
VERTEX
  8
SOLDER
 10
1887.624229
 20
1888.255953
 40
0.000000
 41
0.000000
 42
0.000000
  0
VERTEX
  8
SOLDER
 10
1850.124229
 20
1823.304047
 40
0.000000
 41
0.000000
 42
0.000000
  0
VERTEX
  8
SOLDER
 10
1834.535771
 20
1832.304047
 40
0.000000
 41
0.000000
 42
0.000000
  0
SEQEND
  0
POLYLINE
  8
SOLDER
 66
1
 70
1
 40
0.000000
 41
0.000000
 39
0.000000
  0
VERTEX
  8
SOLDER
 10
1849.515771
 20
1910.255953
 40
0.000000
 41
0.000000
 42
0.000000
  0
VERTEX
  8
SOLDER
 10
1865.104229
 20
1901.255953
 40
0.000000
 41
0.000000
 42
0.000000
  0
VERTEX
  8
SOLDER
 10
1827.604229
 20
1836.304047
 40
0.000000
 41
0.000000
 42
0.000000
  0
VERTEX
  8
SOLDER
 10
1812.015771
 20
1845.304047
 40
0.000000
 41
0.000000
 42
0.000000
  0
SEQEND
  0
POLYLINE
  8
SOLDER
 66
1
 70
1
 40
0.000000
 41
0.000000
 39
0.000000
  0
VERTEX
  8
SOLDER
 10
1826.995771
 20
1923.255953
 40
0.000000
 41
0.000000
 42
0.000000
  0
VERTEX
  8
SOLDER
 10
1842.584229
 20
1914.255953
 40
0.000000
 41
0.000000
 42
0.000000
  0
VERTEX
  8
SOLDER
 10
1805.084229
 20
1849.304047
 40
0.000000
 41
0.000000
 42
0.000000
  0
VERTEX
  8
SOLDER
 10
1789.495771
 20
1858.304047
 40
0.000000
 41
0.000000
 42
0.000000
  0
SEQEND
  0
POLYLINE
  8
SOLDER
 66
1
 70
1
 40
0.000000
 41
0.000000
 39
0.000000
  0
VERTEX
  8
SOLDER
 10
1804.485771
 20
1936.255953
 40
0.000000
 41
0.000000
 42
0.000000
  0
VERTEX
  8
SOLDER
 10
1820.074229
 20
1927.255953
 40
0.000000
 41
0.000000
 42
0.000000
  0
VERTEX
  8
SOLDER
 10
1782.574229
 20
1862.304047
 40
0.000000
 41
0.000000
 42
0.000000
  0
VERTEX
  8
SOLDER
 10
1766.985771
 20
1871.304047
 40
0.000000
 41
0.000000
 42
0.000000
  0
SEQEND
  0
POLYLINE
  8
SOLDER
 66
1
 70
1
 40
0.000000
 41
0.000000
 39
0.000000
  0
VERTEX
  8
SOLDER
 10
1781.965771
 20
1949.255953
 40
0.000000
 41
0.000000
 42
0.000000
  0
VERTEX
  8
SOLDER
 10
1797.554229
 20
1940.255953
 40
0.000000
 41
0.000000
 42
0.000000
  0
VERTEX
  8
SOLDER
 10
1760.054229
 20
1875.304047
 40
0.000000
 41
0.000000
 42
0.000000
  0
VERTEX
  8
SOLDER
 10
1744.465771
 20
1884.304047
 40
0.000000
 41
0.000000
 42
0.000000
  0
SEQEND
  0
POLYLINE
  8
SOLDER
 66
1
 70
1
 40
0.000000
 41
0.000000
 39
0.000000
  0
VERTEX
  8
SOLDER
 10
1774.715771
 20
1156.695953
 40
0.000000
 41
0.000000
 42
0.000000
  0
VERTEX
  8
SOLDER
 10
1790.304229
 20
1147.695953
 40
0.000000
 41
0.000000
 42
0.000000
  0
VERTEX
  8
SOLDER
 10
1752.804229
 20
1082.744047
 40
0.000000
 41
0.000000
 42
0.000000
  0
VERTEX
  8
SOLDER
 10
1737.215771
 20
1091.744047
 40
0.000000
 41
0.000000
 42
0.000000
  0
SEQEND
  0
POLYLINE
  8
SOLDER
 66
1
 70
1
 40
0.000000
 41
0.000000
 39
0.000000
  0
VERTEX
  8
SOLDER
 10
1797.225771
 20
1143.695953
 40
0.000000
 41
0.000000
 42
0.000000
  0
VERTEX
  8
SOLDER
 10
1812.814229
 20
1134.695953
 40
0.000000
 41
0.000000
 42
0.000000
  0
VERTEX
  8
SOLDER
 10
1775.314229
 20
1069.744047
 40
0.000000
 41
0.000000
 42
0.000000
  0
VERTEX
  8
SOLDER
 10
1759.725771
 20
1078.744047
 40
0.000000
 41
0.000000
 42
0.000000
  0
SEQEND
  0
POLYLINE
  8
SOLDER
 66
1
 70
1
 40
0.000000
 41
0.000000
 39
0.000000
  0
VERTEX
  8
SOLDER
 10
1819.745771
 20
1130.695953
 40
0.000000
 41
0.000000
 42
0.000000
  0
VERTEX
  8
SOLDER
 10
1835.334229
 20
1121.695953
 40
0.000000
 41
0.000000
 42
0.000000
  0
VERTEX
  8
SOLDER
 10
1797.834229
 20
1056.744047
 40
0.000000
 41
0.000000
 42
0.000000
  0
VERTEX
  8
SOLDER
 10
1782.245771
 20
1065.744047
 40
0.000000
 41
0.000000
 42
0.000000
  0
SEQEND
  0
POLYLINE
  8
SOLDER
 66
1
 70
1
 40
0.000000
 41
0.000000
 39
0.000000
  0
VERTEX
  8
SOLDER
 10
1842.265771
 20
1117.695953
 40
0.000000
 41
0.000000
 42
0.000000
  0
VERTEX
  8
SOLDER
 10
1857.854229
 20
1108.695953
 40
0.000000
 41
0.000000
 42
0.000000
  0
VERTEX
  8
SOLDER
 10
1820.354229
 20
1043.744047
 40
0.000000
 41
0.000000
 42
0.000000
  0
VERTEX
  8
SOLDER
 10
1804.765771
 20
1052.744047
 40
0.000000
 41
0.000000
 42
0.000000
  0
SEQEND
  0
POLYLINE
  8
SOLDER
 66
1
 70
1
 40
0.000000
 41
0.000000
 39
0.000000
  0
VERTEX
  8
SOLDER
 10
1864.775771
 20
1104.695953
 40
0.000000
 41
0.000000
 42
0.000000
  0
VERTEX
  8
SOLDER
 10
1880.364229
 20
1095.695953
 40
0.000000
 41
0.000000
 42
0.000000
  0
VERTEX
  8
SOLDER
 10
1842.864229
 20
1030.744047
 40
0.000000
 41
0.000000
 42
0.000000
  0
VERTEX
  8
SOLDER
 10
1827.275771
 20
1039.744047
 40
0.000000
 41
0.000000
 42
0.000000
  0
SEQEND
  0
POLYLINE
  8
SOLDER
 66
1
 70
1
 40
0.000000
 41
0.000000
 39
0.000000
  0
VERTEX
  8
SOLDER
 10
1887.295771
 20
1091.695953
 40
0.000000
 41
0.000000
 42
0.000000
  0
VERTEX
  8
SOLDER
 10
1902.884229
 20
1082.695953
 40
0.000000
 41
0.000000
 42
0.000000
  0
VERTEX
  8
SOLDER
 10
1865.384229
 20
1017.744047
 40
0.000000
 41
0.000000
 42
0.000000
  0
VERTEX
  8
SOLDER
 10
1849.795771
 20
1026.744047
 40
0.000000
 41
0.000000
 42
0.000000
  0
SEQEND
  0
POLYLINE
  8
SOLDER
 66
1
 70
1
 40
0.000000
 41
0.000000
 39
0.000000
  0
VERTEX
  8
SOLDER
 10
1909.815771
 20
1078.695953
 40
0.000000
 41
0.000000
 42
0.000000
  0
VERTEX
  8
SOLDER
 10
1925.404229
 20
1069.695953
 40
0.000000
 41
0.000000
 42
0.000000
  0
VERTEX
  8
SOLDER
 10
1887.904229
 20
1004.744047
 40
0.000000
 41
0.000000
 42
0.000000
  0
VERTEX
  8
SOLDER
 10
1872.315771
 20
1013.744047
 40
0.000000
 41
0.000000
 42
0.000000
  0
SEQEND
  0
POLYLINE
  8
SOLDER
 66
1
 70
1
 40
0.000000
 41
0.000000
 39
0.000000
  0
VERTEX
  8
SOLDER
 10
1932.325771
 20
1065.695953
 40
0.000000
 41
0.000000
 42
0.000000
  0
VERTEX
  8
SOLDER
 10
1947.914229
 20
1056.695953
 40
0.000000
 41
0.000000
 42
0.000000
  0
VERTEX
  8
SOLDER
 10
1910.414229
 20
991.744047
 40
0.000000
 41
0.000000
 42
0.000000
  0
VERTEX
  8
SOLDER
 10
1894.825771
 20
1000.744047
 40
0.000000
 41
0.000000
 42
0.000000
  0
SEQEND
  0
POLYLINE
  8
SOLDER
 66
1
 70
1
 40
0.000000
 41
0.000000
 39
0.000000
  0
VERTEX
  8
SOLDER
 10
1954.845771
 20
1052.695953
 40
0.000000
 41
0.000000
 42
0.000000
  0
VERTEX
  8
SOLDER
 10
1970.434229
 20
1043.695953
 40
0.000000
 41
0.000000
 42
0.000000
  0
VERTEX
  8
SOLDER
 10
1932.934229
 20
978.744047
 40
0.000000
 41
0.000000
 42
0.000000
  0
VERTEX
  8
SOLDER
 10
1917.345771
 20
987.744047
 40
0.000000
 41
0.000000
 42
0.000000
  0
SEQEND
  0
POLYLINE
  8
SOLDER
 66
1
 70
1
 40
0.000000
 41
0.000000
 39
0.000000
  0
VERTEX
  8
SOLDER
 10
1977.365771
 20
1039.695953
 40
0.000000
 41
0.000000
 42
0.000000
  0
VERTEX
  8
SOLDER
 10
1992.954229
 20
1030.695953
 40
0.000000
 41
0.000000
 42
0.000000
  0
VERTEX
  8
SOLDER
 10
1955.454229
 20
965.744047
 40
0.000000
 41
0.000000
 42
0.000000
  0
VERTEX
  8
SOLDER
 10
1939.865771
 20
974.744047
 40
0.000000
 41
0.000000
 42
0.000000
  0
SEQEND
  0
POLYLINE
  8
SOLDER
 66
1
 70
1
 40
0.000000
 41
0.000000
 39
0.000000
  0
VERTEX
  8
SOLDER
 10
1999.875771
 20
1026.695953
 40
0.000000
 41
0.000000
 42
0.000000
  0
VERTEX
  8
SOLDER
 10
2015.464229
 20
1017.695953
 40
0.000000
 41
0.000000
 42
0.000000
  0
VERTEX
  8
SOLDER
 10
1977.964229
 20
952.744047
 40
0.000000
 41
0.000000
 42
0.000000
  0
VERTEX
  8
SOLDER
 10
1962.375771
 20
961.744047
 40
0.000000
 41
0.000000
 42
0.000000
  0
SEQEND
  0
POLYLINE
  8
SOLDER
 66
1
 70
1
 40
0.000000
 41
0.000000
 39
0.000000
  0
VERTEX
  8
SOLDER
 10
2022.395771
 20
1013.695953
 40
0.000000
 41
0.000000
 42
0.000000
  0
VERTEX
  8
SOLDER
 10
2037.984229
 20
1004.695953
 40
0.000000
 41
0.000000
 42
0.000000
  0
VERTEX
  8
SOLDER
 10
2000.484229
 20
939.744047
 40
0.000000
 41
0.000000
 42
0.000000
  0
VERTEX
  8
SOLDER
 10
1984.895771
 20
948.744047
 40
0.000000
 41
0.000000
 42
0.000000
  0
SEQEND
  0
POLYLINE
  8
SOLDER
 66
1
 70
1
 40
0.000000
 41
0.000000
 39
0.000000
  0
VERTEX
  8
SOLDER
 10
2044.915771
 20
1000.695953
 40
0.000000
 41
0.000000
 42
0.000000
  0
VERTEX
  8
SOLDER
 10
2060.504229
 20
991.695953
 40
0.000000
 41
0.000000
 42
0.000000
  0
VERTEX
  8
SOLDER
 10
2023.004229
 20
926.744047
 40
0.000000
 41
0.000000
 42
0.000000
  0
VERTEX
  8
SOLDER
 10
2007.415771
 20
935.744047
 40
0.000000
 41
0.000000
 42
0.000000
  0
SEQEND
  0
POLYLINE
  8
SOLDER
 66
1
 70
1
 40
0.000000
 41
0.000000
 39
0.000000
  0
VERTEX
  8
SOLDER
 10
2067.425771
 20
987.695953
 40
0.000000
 41
0.000000
 42
0.000000
  0
VERTEX
  8
SOLDER
 10
2083.014229
 20
978.695953
 40
0.000000
 41
0.000000
 42
0.000000
  0
VERTEX
  8
SOLDER
 10
2045.514229
 20
913.744047
 40
0.000000
 41
0.000000
 42
0.000000
  0
VERTEX
  8
SOLDER
 10
2029.925771
 20
922.744047
 40
0.000000
 41
0.000000
 42
0.000000
  0
SEQEND
  0
POLYLINE
  8
SOLDER
 66
1
 70
1
 40
0.000000
 41
0.000000
 39
0.000000
  0
VERTEX
  8
SOLDER
 10
2089.945771
 20
974.695953
 40
0.000000
 41
0.000000
 42
0.000000
  0
VERTEX
  8
SOLDER
 10
2105.534229
 20
965.695953
 40
0.000000
 41
0.000000
 42
0.000000
  0
VERTEX
  8
SOLDER
 10
2068.034229
 20
900.744047
 40
0.000000
 41
0.000000
 42
0.000000
  0
VERTEX
  8
SOLDER
 10
2052.445771
 20
909.744047
 40
0.000000
 41
0.000000
 42
0.000000
  0
SEQEND
  0
POLYLINE
  8
SOLDER
 66
1
 70
1
 40
0.000000
 41
0.000000
 39
0.000000
  0
VERTEX
  8
SOLDER
 10
1436.965771
 20
1351.695953
 40
0.000000
 41
0.000000
 42
0.000000
  0
VERTEX
  8
SOLDER
 10
1452.554229
 20
1342.695953
 40
0.000000
 41
0.000000
 42
0.000000
  0
VERTEX
  8
SOLDER
 10
1415.054229
 20
1277.744047
 40
0.000000
 41
0.000000
 42
0.000000
  0
VERTEX
  8
SOLDER
 10
1399.465771
 20
1286.744047
 40
0.000000
 41
0.000000
 42
0.000000
  0
SEQEND
  0
POLYLINE
  8
SOLDER
 66
1
 70
1
 40
0.000000
 41
0.000000
 39
0.000000
  0
VERTEX
  8
SOLDER
 10
1459.485771
 20
1338.695953
 40
0.000000
 41
0.000000
 42
0.000000
  0
VERTEX
  8
SOLDER
 10
1475.074229
 20
1329.695953
 40
0.000000
 41
0.000000
 42
0.000000
  0
VERTEX
  8
SOLDER
 10
1437.574229
 20
1264.744047
 40
0.000000
 41
0.000000
 42
0.000000
  0
VERTEX
  8
SOLDER
 10
1421.985771
 20
1273.744047
 40
0.000000
 41
0.000000
 42
0.000000
  0
SEQEND
  0
POLYLINE
  8
SOLDER
 66
1
 70
1
 40
0.000000
 41
0.000000
 39
0.000000
  0
VERTEX
  8
SOLDER
 10
1481.995771
 20
1325.695953
 40
0.000000
 41
0.000000
 42
0.000000
  0
VERTEX
  8
SOLDER
 10
1497.584229
 20
1316.695953
 40
0.000000
 41
0.000000
 42
0.000000
  0
VERTEX
  8
SOLDER
 10
1460.084229
 20
1251.744047
 40
0.000000
 41
0.000000
 42
0.000000
  0
VERTEX
  8
SOLDER
 10
1444.495771
 20
1260.744047
 40
0.000000
 41
0.000000
 42
0.000000
  0
SEQEND
  0
POLYLINE
  8
SOLDER
 66
1
 70
1
 40
0.000000
 41
0.000000
 39
0.000000
  0
VERTEX
  8
SOLDER
 10
1504.515771
 20
1312.695953
 40
0.000000
 41
0.000000
 42
0.000000
  0
VERTEX
  8
SOLDER
 10
1520.104229
 20
1303.695953
 40
0.000000
 41
0.000000
 42
0.000000
  0
VERTEX
  8
SOLDER
 10
1482.604229
 20
1238.744047
 40
0.000000
 41
0.000000
 42
0.000000
  0
VERTEX
  8
SOLDER
 10
1467.015771
 20
1247.744047
 40
0.000000
 41
0.000000
 42
0.000000
  0
SEQEND
  0
POLYLINE
  8
SOLDER
 66
1
 70
1
 40
0.000000
 41
0.000000
 39
0.000000
  0
VERTEX
  8
SOLDER
 10
1527.035771
 20
1299.695953
 40
0.000000
 41
0.000000
 42
0.000000
  0
VERTEX
  8
SOLDER
 10
1542.624229
 20
1290.695953
 40
0.000000
 41
0.000000
 42
0.000000
  0
VERTEX
  8
SOLDER
 10
1505.124229
 20
1225.744047
 40
0.000000
 41
0.000000
 42
0.000000
  0
VERTEX
  8
SOLDER
 10
1489.535771
 20
1234.744047
 40
0.000000
 41
0.000000
 42
0.000000
  0
SEQEND
  0
POLYLINE
  8
SOLDER
 66
1
 70
1
 40
0.000000
 41
0.000000
 39
0.000000
  0
VERTEX
  8
SOLDER
 10
1549.545771
 20
1286.695953
 40
0.000000
 41
0.000000
 42
0.000000
  0
VERTEX
  8
SOLDER
 10
1565.134229
 20
1277.695953
 40
0.000000
 41
0.000000
 42
0.000000
  0
VERTEX
  8
SOLDER
 10
1527.634229
 20
1212.744047
 40
0.000000
 41
0.000000
 42
0.000000
  0
VERTEX
  8
SOLDER
 10
1512.045771
 20
1221.744047
 40
0.000000
 41
0.000000
 42
0.000000
  0
SEQEND
  0
POLYLINE
  8
SOLDER
 66
1
 70
1
 40
0.000000
 41
0.000000
 39
0.000000
  0
VERTEX
  8
SOLDER
 10
1572.065771
 20
1273.695953
 40
0.000000
 41
0.000000
 42
0.000000
  0
VERTEX
  8
SOLDER
 10
1587.654229
 20
1264.695953
 40
0.000000
 41
0.000000
 42
0.000000
  0
VERTEX
  8
SOLDER
 10
1550.154229
 20
1199.744047
 40
0.000000
 41
0.000000
 42
0.000000
  0
VERTEX
  8
SOLDER
 10
1534.565771
 20
1208.744047
 40
0.000000
 41
0.000000
 42
0.000000
  0
SEQEND
  0
POLYLINE
  8
SOLDER
 66
1
 70
1
 40
0.000000
 41
0.000000
 39
0.000000
  0
VERTEX
  8
SOLDER
 10
1594.585771
 20
1260.695953
 40
0.000000
 41
0.000000
 42
0.000000
  0
VERTEX
  8
SOLDER
 10
1610.174229
 20
1251.695953
 40
0.000000
 41
0.000000
 42
0.000000
  0
VERTEX
  8
SOLDER
 10
1572.674229
 20
1186.744047
 40
0.000000
 41
0.000000
 42
0.000000
  0
VERTEX
  8
SOLDER
 10
1557.085771
 20
1195.744047
 40
0.000000
 41
0.000000
 42
0.000000
  0
SEQEND
  0
POLYLINE
  8
SOLDER
 66
1
 70
1
 40
0.000000
 41
0.000000
 39
0.000000
  0
VERTEX
  8
SOLDER
 10
1617.095771
 20
1247.695953
 40
0.000000
 41
0.000000
 42
0.000000
  0
VERTEX
  8
SOLDER
 10
1632.684229
 20
1238.695953
 40
0.000000
 41
0.000000
 42
0.000000
  0
VERTEX
  8
SOLDER
 10
1595.184229
 20
1173.744047
 40
0.000000
 41
0.000000
 42
0.000000
  0
VERTEX
  8
SOLDER
 10
1579.595771
 20
1182.744047
 40
0.000000
 41
0.000000
 42
0.000000
  0
SEQEND
  0
POLYLINE
  8
SOLDER
 66
1
 70
1
 40
0.000000
 41
0.000000
 39
0.000000
  0
VERTEX
  8
SOLDER
 10
1639.615771
 20
1234.695953
 40
0.000000
 41
0.000000
 42
0.000000
  0
VERTEX
  8
SOLDER
 10
1655.204229
 20
1225.695953
 40
0.000000
 41
0.000000
 42
0.000000
  0
VERTEX
  8
SOLDER
 10
1617.704229
 20
1160.744047
 40
0.000000
 41
0.000000
 42
0.000000
  0
VERTEX
  8
SOLDER
 10
1602.115771
 20
1169.744047
 40
0.000000
 41
0.000000
 42
0.000000
  0
SEQEND
  0
POLYLINE
  8
SOLDER
 66
1
 70
1
 40
0.000000
 41
0.000000
 39
0.000000
  0
VERTEX
  8
SOLDER
 10
1662.135771
 20
1221.695953
 40
0.000000
 41
0.000000
 42
0.000000
  0
VERTEX
  8
SOLDER
 10
1677.724229
 20
1212.695953
 40
0.000000
 41
0.000000
 42
0.000000
  0
VERTEX
  8
SOLDER
 10
1640.224229
 20
1147.744047
 40
0.000000
 41
0.000000
 42
0.000000
  0
VERTEX
  8
SOLDER
 10
1624.635771
 20
1156.744047
 40
0.000000
 41
0.000000
 42
0.000000
  0
SEQEND
  0
POLYLINE
  8
SOLDER
 66
1
 70
1
 40
0.000000
 41
0.000000
 39
0.000000
  0
VERTEX
  8
SOLDER
 10
1684.645771
 20
1208.695953
 40
0.000000
 41
0.000000
 42
0.000000
  0
VERTEX
  8
SOLDER
 10
1700.234229
 20
1199.695953
 40
0.000000
 41
0.000000
 42
0.000000
  0
VERTEX
  8
SOLDER
 10
1662.734229
 20
1134.744047
 40
0.000000
 41
0.000000
 42
0.000000
  0
VERTEX
  8
SOLDER
 10
1647.145771
 20
1143.744047
 40
0.000000
 41
0.000000
 42
0.000000
  0
SEQEND
  0
POLYLINE
  8
SOLDER
 66
1
 70
1
 40
0.000000
 41
0.000000
 39
0.000000
  0
VERTEX
  8
SOLDER
 10
1707.165771
 20
1195.695953
 40
0.000000
 41
0.000000
 42
0.000000
  0
VERTEX
  8
SOLDER
 10
1722.754229
 20
1186.695953
 40
0.000000
 41
0.000000
 42
0.000000
  0
VERTEX
  8
SOLDER
 10
1685.254229
 20
1121.744047
 40
0.000000
 41
0.000000
 42
0.000000
  0
VERTEX
  8
SOLDER
 10
1669.665771
 20
1130.744047
 40
0.000000
 41
0.000000
 42
0.000000
  0
SEQEND
  0
POLYLINE
  8
SOLDER
 66
1
 70
1
 40
0.000000
 41
0.000000
 39
0.000000
  0
VERTEX
  8
SOLDER
 10
1729.685771
 20
1182.695953
 40
0.000000
 41
0.000000
 42
0.000000
  0
VERTEX
  8
SOLDER
 10
1745.274229
 20
1173.695953
 40
0.000000
 41
0.000000
 42
0.000000
  0
VERTEX
  8
SOLDER
 10
1707.774229
 20
1108.744047
 40
0.000000
 41
0.000000
 42
0.000000
  0
VERTEX
  8
SOLDER
 10
1692.185771
 20
1117.744047
 40
0.000000
 41
0.000000
 42
0.000000
  0
SEQEND
  0
POLYLINE
  8
SOLDER
 66
1
 70
1
 40
0.000000
 41
0.000000
 39
0.000000
  0
VERTEX
  8
SOLDER
 10
1752.195771
 20
1169.695953
 40
0.000000
 41
0.000000
 42
0.000000
  0
VERTEX
  8
SOLDER
 10
1767.784229
 20
1160.695953
 40
0.000000
 41
0.000000
 42
0.000000
  0
VERTEX
  8
SOLDER
 10
1730.284229
 20
1095.744047
 40
0.000000
 41
0.000000
 42
0.000000
  0
VERTEX
  8
SOLDER
 10
1714.695771
 20
1104.744047
 40
0.000000
 41
0.000000
 42
0.000000
  0
SEQEND
  0
POLYLINE
  8
SOLDER
 66
1
 70
1
 40
0.000000
 41
0.000000
 39
0.000000
  0
VERTEX
  8
SOLDER
 10
2434.945771
 20
1572.255953
 40
0.000000
 41
0.000000
 42
0.000000
  0
VERTEX
  8
SOLDER
 10
2450.534229
 20
1563.255953
 40
0.000000
 41
0.000000
 42
0.000000
  0
VERTEX
  8
SOLDER
 10
2413.034229
 20
1498.304047
 40
0.000000
 41
0.000000
 42
0.000000
  0
VERTEX
  8
SOLDER
 10
2397.445771
 20
1507.304047
 40
0.000000
 41
0.000000
 42
0.000000
  0
SEQEND
  0
POLYLINE
  8
SOLDER
 66
1
 70
1
 40
0.000000
 41
0.000000
 39
0.000000
  0
VERTEX
  8
SOLDER
 10
2412.425771
 20
1585.255953
 40
0.000000
 41
0.000000
 42
0.000000
  0
VERTEX
  8
SOLDER
 10
2428.014229
 20
1576.255953
 40
0.000000
 41
0.000000
 42
0.000000
  0
VERTEX
  8
SOLDER
 10
2390.514229
 20
1511.304047
 40
0.000000
 41
0.000000
 42
0.000000
  0
VERTEX
  8
SOLDER
 10
2374.925771
 20
1520.304047
 40
0.000000
 41
0.000000
 42
0.000000
  0
SEQEND
  0
POLYLINE
  8
SOLDER
 66
1
 70
1
 40
0.000000
 41
0.000000
 39
0.000000
  0
VERTEX
  8
SOLDER
 10
2389.915771
 20
1598.255953
 40
0.000000
 41
0.000000
 42
0.000000
  0
VERTEX
  8
SOLDER
 10
2405.504229
 20
1589.255953
 40
0.000000
 41
0.000000
 42
0.000000
  0
VERTEX
  8
SOLDER
 10
2368.004229
 20
1524.304047
 40
0.000000
 41
0.000000
 42
0.000000
  0
VERTEX
  8
SOLDER
 10
2352.415771
 20
1533.304047
 40
0.000000
 41
0.000000
 42
0.000000
  0
SEQEND
  0
POLYLINE
  8
SOLDER
 66
1
 70
1
 40
0.000000
 41
0.000000
 39
0.000000
  0
VERTEX
  8
SOLDER
 10
2367.395771
 20
1611.255953
 40
0.000000
 41
0.000000
 42
0.000000
  0
VERTEX
  8
SOLDER
 10
2382.984229
 20
1602.255953
 40
0.000000
 41
0.000000
 42
0.000000
  0
VERTEX
  8
SOLDER
 10
2345.484229
 20
1537.304047
 40
0.000000
 41
0.000000
 42
0.000000
  0
VERTEX
  8
SOLDER
 10
2329.895771
 20
1546.304047
 40
0.000000
 41
0.000000
 42
0.000000
  0
SEQEND
  0
POLYLINE
  8
SOLDER
 66
1
 70
1
 40
0.000000
 41
0.000000
 39
0.000000
  0
VERTEX
  8
SOLDER
 10
2344.875771
 20
1624.255953
 40
0.000000
 41
0.000000
 42
0.000000
  0
VERTEX
  8
SOLDER
 10
2360.464229
 20
1615.255953
 40
0.000000
 41
0.000000
 42
0.000000
  0
VERTEX
  8
SOLDER
 10
2322.964229
 20
1550.304047
 40
0.000000
 41
0.000000
 42
0.000000
  0
VERTEX
  8
SOLDER
 10
2307.375771
 20
1559.304047
 40
0.000000
 41
0.000000
 42
0.000000
  0
SEQEND
  0
POLYLINE
  8
SOLDER
 66
1
 70
1
 40
0.000000
 41
0.000000
 39
0.000000
  0
VERTEX
  8
SOLDER
 10
2322.365771
 20
1637.255953
 40
0.000000
 41
0.000000
 42
0.000000
  0
VERTEX
  8
SOLDER
 10
2337.954229
 20
1628.255953
 40
0.000000
 41
0.000000
 42
0.000000
  0
VERTEX
  8
SOLDER
 10
2300.454229
 20
1563.304047
 40
0.000000
 41
0.000000
 42
0.000000
  0
VERTEX
  8
SOLDER
 10
2284.865771
 20
1572.304047
 40
0.000000
 41
0.000000
 42
0.000000
  0
SEQEND
  0
POLYLINE
  8
SOLDER
 66
1
 70
1
 40
0.000000
 41
0.000000
 39
0.000000
  0
VERTEX
  8
SOLDER
 10
2299.845771
 20
1650.255953
 40
0.000000
 41
0.000000
 42
0.000000
  0
VERTEX
  8
SOLDER
 10
2315.434229
 20
1641.255953
 40
0.000000
 41
0.000000
 42
0.000000
  0
VERTEX
  8
SOLDER
 10
2277.934229
 20
1576.304047
 40
0.000000
 41
0.000000
 42
0.000000
  0
VERTEX
  8
SOLDER
 10
2262.345771
 20
1585.304047
 40
0.000000
 41
0.000000
 42
0.000000
  0
SEQEND
  0
POLYLINE
  8
SOLDER
 66
1
 70
1
 40
0.000000
 41
0.000000
 39
0.000000
  0
VERTEX
  8
SOLDER
 10
2277.325771
 20
1663.255953
 40
0.000000
 41
0.000000
 42
0.000000
  0
VERTEX
  8
SOLDER
 10
2292.914229
 20
1654.255953
 40
0.000000
 41
0.000000
 42
0.000000
  0
VERTEX
  8
SOLDER
 10
2255.414229
 20
1589.304047
 40
0.000000
 41
0.000000
 42
0.000000
  0
VERTEX
  8
SOLDER
 10
2239.825771
 20
1598.304047
 40
0.000000
 41
0.000000
 42
0.000000
  0
SEQEND
  0
POLYLINE
  8
SOLDER
 66
1
 70
1
 40
0.000000
 41
0.000000
 39
0.000000
  0
VERTEX
  8
SOLDER
 10
2254.815771
 20
1676.255953
 40
0.000000
 41
0.000000
 42
0.000000
  0
VERTEX
  8
SOLDER
 10
2270.404229
 20
1667.255953
 40
0.000000
 41
0.000000
 42
0.000000
  0
VERTEX
  8
SOLDER
 10
2232.904229
 20
1602.304047
 40
0.000000
 41
0.000000
 42
0.000000
  0
VERTEX
  8
SOLDER
 10
2217.315771
 20
1611.304047
 40
0.000000
 41
0.000000
 42
0.000000
  0
SEQEND
  0
POLYLINE
  8
SOLDER
 66
1
 70
1
 40
0.000000
 41
0.000000
 39
0.000000
  0
VERTEX
  8
SOLDER
 10
2232.295771
 20
1689.255953
 40
0.000000
 41
0.000000
 42
0.000000
  0
VERTEX
  8
SOLDER
 10
2247.884229
 20
1680.255953
 40
0.000000
 41
0.000000
 42
0.000000
  0
VERTEX
  8
SOLDER
 10
2210.384229
 20
1615.304047
 40
0.000000
 41
0.000000
 42
0.000000
  0
VERTEX
  8
SOLDER
 10
2194.795771
 20
1624.304047
 40
0.000000
 41
0.000000
 42
0.000000
  0
SEQEND
  0
POLYLINE
  8
SOLDER
 66
1
 70
1
 40
0.000000
 41
0.000000
 39
0.000000
  0
VERTEX
  8
SOLDER
 10
2209.775771
 20
1702.255953
 40
0.000000
 41
0.000000
 42
0.000000
  0
VERTEX
  8
SOLDER
 10
2225.364229
 20
1693.255953
 40
0.000000
 41
0.000000
 42
0.000000
  0
VERTEX
  8
SOLDER
 10
2187.864229
 20
1628.304047
 40
0.000000
 41
0.000000
 42
0.000000
  0
VERTEX
  8
SOLDER
 10
2172.275771
 20
1637.304047
 40
0.000000
 41
0.000000
 42
0.000000
  0
SEQEND
  0
POLYLINE
  8
SOLDER
 66
1
 70
1
 40
0.000000
 41
0.000000
 39
0.000000
  0
VERTEX
  8
SOLDER
 10
2187.265771
 20
1715.255953
 40
0.000000
 41
0.000000
 42
0.000000
  0
VERTEX
  8
SOLDER
 10
2202.854229
 20
1706.255953
 40
0.000000
 41
0.000000
 42
0.000000
  0
VERTEX
  8
SOLDER
 10
2165.354229
 20
1641.304047
 40
0.000000
 41
0.000000
 42
0.000000
  0
VERTEX
  8
SOLDER
 10
2149.765771
 20
1650.304047
 40
0.000000
 41
0.000000
 42
0.000000
  0
SEQEND
  0
POLYLINE
  8
SOLDER
 66
1
 70
1
 40
0.000000
 41
0.000000
 39
0.000000
  0
VERTEX
  8
SOLDER
 10
2164.745771
 20
1728.255953
 40
0.000000
 41
0.000000
 42
0.000000
  0
VERTEX
  8
SOLDER
 10
2180.334229
 20
1719.255953
 40
0.000000
 41
0.000000
 42
0.000000
  0
VERTEX
  8
SOLDER
 10
2142.834229
 20
1654.304047
 40
0.000000
 41
0.000000
 42
0.000000
  0
VERTEX
  8
SOLDER
 10
2127.245771
 20
1663.304047
 40
0.000000
 41
0.000000
 42
0.000000
  0
SEQEND
  0
POLYLINE
  8
SOLDER
 66
1
 70
1
 40
0.000000
 41
0.000000
 39
0.000000
  0
VERTEX
  8
SOLDER
 10
2142.225771
 20
1741.255953
 40
0.000000
 41
0.000000
 42
0.000000
  0
VERTEX
  8
SOLDER
 10
2157.814229
 20
1732.255953
 40
0.000000
 41
0.000000
 42
0.000000
  0
VERTEX
  8
SOLDER
 10
2120.314229
 20
1667.304047
 40
0.000000
 41
0.000000
 42
0.000000
  0
VERTEX
  8
SOLDER
 10
2104.725771
 20
1676.304047
 40
0.000000
 41
0.000000
 42
0.000000
  0
SEQEND
  0
POLYLINE
  8
SOLDER
 66
1
 70
1
 40
0.000000
 41
0.000000
 39
0.000000
  0
VERTEX
  8
SOLDER
 10
2119.715771
 20
1754.255953
 40
0.000000
 41
0.000000
 42
0.000000
  0
VERTEX
  8
SOLDER
 10
2135.304229
 20
1745.255953
 40
0.000000
 41
0.000000
 42
0.000000
  0
VERTEX
  8
SOLDER
 10
2097.804229
 20
1680.304047
 40
0.000000
 41
0.000000
 42
0.000000
  0
VERTEX
  8
SOLDER
 10
2082.215771
 20
1689.304047
 40
0.000000
 41
0.000000
 42
0.000000
  0
SEQEND
  0
POLYLINE
  8
SOLDER
 66
1
 70
1
 40
0.000000
 41
0.000000
 39
0.000000
  0
VERTEX
  8
SOLDER
 10
2369.445953
 20
1193.804229
 40
0.000000
 41
0.000000
 42
0.000000
  0
VERTEX
  8
SOLDER
 10
2360.445953
 20
1178.215771
 40
0.000000
 41
0.000000
 42
0.000000
  0
VERTEX
  8
SOLDER
 10
2295.494047
 20
1215.715771
 40
0.000000
 41
0.000000
 42
0.000000
  0
VERTEX
  8
SOLDER
 10
2304.494047
 20
1231.304229
 40
0.000000
 41
0.000000
 42
0.000000
  0
SEQEND
  0
POLYLINE
  8
SOLDER
 66
1
 70
1
 40
0.000000
 41
0.000000
 39
0.000000
  0
VERTEX
  8
SOLDER
 10
2382.445953
 20
1216.314229
 40
0.000000
 41
0.000000
 42
0.000000
  0
VERTEX
  8
SOLDER
 10
2373.445953
 20
1200.725771
 40
0.000000
 41
0.000000
 42
0.000000
  0
VERTEX
  8
SOLDER
 10
2308.494047
 20
1238.225771
 40
0.000000
 41
0.000000
 42
0.000000
  0
VERTEX
  8
SOLDER
 10
2317.494047
 20
1253.814229
 40
0.000000
 41
0.000000
 42
0.000000
  0
SEQEND
  0
POLYLINE
  8
SOLDER
 66
1
 70
1
 40
0.000000
 41
0.000000
 39
0.000000
  0
VERTEX
  8
SOLDER
 10
2395.445953
 20
1238.834229
 40
0.000000
 41
0.000000
 42
0.000000
  0
VERTEX
  8
SOLDER
 10
2386.445953
 20
1223.245771
 40
0.000000
 41
0.000000
 42
0.000000
  0
VERTEX
  8
SOLDER
 10
2321.494047
 20
1260.745771
 40
0.000000
 41
0.000000
 42
0.000000
  0
VERTEX
  8
SOLDER
 10
2330.494047
 20
1276.334229
 40
0.000000
 41
0.000000
 42
0.000000
  0
SEQEND
  0
POLYLINE
  8
SOLDER
 66
1
 70
1
 40
0.000000
 41
0.000000
 39
0.000000
  0
VERTEX
  8
SOLDER
 10
2408.445953
 20
1261.354229
 40
0.000000
 41
0.000000
 42
0.000000
  0
VERTEX
  8
SOLDER
 10
2399.445953
 20
1245.765771
 40
0.000000
 41
0.000000
 42
0.000000
  0
VERTEX
  8
SOLDER
 10
2334.494047
 20
1283.265771
 40
0.000000
 41
0.000000
 42
0.000000
  0
VERTEX
  8
SOLDER
 10
2343.494047
 20
1298.854229
 40
0.000000
 41
0.000000
 42
0.000000
  0
SEQEND
  0
POLYLINE
  8
SOLDER
 66
1
 70
1
 40
0.000000
 41
0.000000
 39
0.000000
  0
VERTEX
  8
SOLDER
 10
2421.445953
 20
1283.864229
 40
0.000000
 41
0.000000
 42
0.000000
  0
VERTEX
  8
SOLDER
 10
2412.445953
 20
1268.275771
 40
0.000000
 41
0.000000
 42
0.000000
  0
VERTEX
  8
SOLDER
 10
2347.494047
 20
1305.775771
 40
0.000000
 41
0.000000
 42
0.000000
  0
VERTEX
  8
SOLDER
 10
2356.494047
 20
1321.364229
 40
0.000000
 41
0.000000
 42
0.000000
  0
SEQEND
  0
POLYLINE
  8
SOLDER
 66
1
 70
1
 40
0.000000
 41
0.000000
 39
0.000000
  0
VERTEX
  8
SOLDER
 10
2434.445953
 20
1306.384229
 40
0.000000
 41
0.000000
 42
0.000000
  0
VERTEX
  8
SOLDER
 10
2425.445953
 20
1290.795771
 40
0.000000
 41
0.000000
 42
0.000000
  0
VERTEX
  8
SOLDER
 10
2360.494047
 20
1328.295771
 40
0.000000
 41
0.000000
 42
0.000000
  0
VERTEX
  8
SOLDER
 10
2369.494047
 20
1343.884229
 40
0.000000
 41
0.000000
 42
0.000000
  0
SEQEND
  0
POLYLINE
  8
SOLDER
 66
1
 70
1
 40
0.000000
 41
0.000000
 39
0.000000
  0
VERTEX
  8
SOLDER
 10
2447.445953
 20
1328.904229
 40
0.000000
 41
0.000000
 42
0.000000
  0
VERTEX
  8
SOLDER
 10
2438.445953
 20
1313.315771
 40
0.000000
 41
0.000000
 42
0.000000
  0
VERTEX
  8
SOLDER
 10
2373.494047
 20
1350.815771
 40
0.000000
 41
0.000000
 42
0.000000
  0
VERTEX
  8
SOLDER
 10
2382.494047
 20
1366.404229
 40
0.000000
 41
0.000000
 42
0.000000
  0
SEQEND
  0
POLYLINE
  8
SOLDER
 66
1
 70
1
 40
0.000000
 41
0.000000
 39
0.000000
  0
VERTEX
  8
SOLDER
 10
2460.445953
 20
1351.414229
 40
0.000000
 41
0.000000
 42
0.000000
  0
VERTEX
  8
SOLDER
 10
2451.445953
 20
1335.825771
 40
0.000000
 41
0.000000
 42
0.000000
  0
VERTEX
  8
SOLDER
 10
2386.494047
 20
1373.325771
 40
0.000000
 41
0.000000
 42
0.000000
  0
VERTEX
  8
SOLDER
 10
2395.494047
 20
1388.914229
 40
0.000000
 41
0.000000
 42
0.000000
  0
SEQEND
  0
POLYLINE
  8
SOLDER
 66
1
 70
1
 40
0.000000
 41
0.000000
 39
0.000000
  0
VERTEX
  8
SOLDER
 10
2473.445953
 20
1373.934229
 40
0.000000
 41
0.000000
 42
0.000000
  0
VERTEX
  8
SOLDER
 10
2464.445953
 20
1358.345771
 40
0.000000
 41
0.000000
 42
0.000000
  0
VERTEX
  8
SOLDER
 10
2399.494047
 20
1395.845771
 40
0.000000
 41
0.000000
 42
0.000000
  0
VERTEX
  8
SOLDER
 10
2408.494047
 20
1411.434229
 40
0.000000
 41
0.000000
 42
0.000000
  0
SEQEND
  0
POLYLINE
  8
SOLDER
 66
1
 70
1
 40
0.000000
 41
0.000000
 39
0.000000
  0
VERTEX
  8
SOLDER
 10
2486.445953
 20
1396.454229
 40
0.000000
 41
0.000000
 42
0.000000
  0
VERTEX
  8
SOLDER
 10
2477.445953
 20
1380.865771
 40
0.000000
 41
0.000000
 42
0.000000
  0
VERTEX
  8
SOLDER
 10
2412.494047
 20
1418.365771
 40
0.000000
 41
0.000000
 42
0.000000
  0
VERTEX
  8
SOLDER
 10
2421.494047
 20
1433.954229
 40
0.000000
 41
0.000000
 42
0.000000
  0
SEQEND
  0
POLYLINE
  8
SOLDER
 66
1
 70
1
 40
0.000000
 41
0.000000
 39
0.000000
  0
VERTEX
  8
SOLDER
 10
2239.445953
 20
968.634229
 40
0.000000
 41
0.000000
 42
0.000000
  0
VERTEX
  8
SOLDER
 10
2230.445953
 20
953.045771
 40
0.000000
 41
0.000000
 42
0.000000
  0
VERTEX
  8
SOLDER
 10
2165.494047
 20
990.545771
 40
0.000000
 41
0.000000
 42
0.000000
  0
VERTEX
  8
SOLDER
 10
2174.494047
 20
1006.134229
 40
0.000000
 41
0.000000
 42
0.000000
  0
SEQEND
  0
POLYLINE
  8
SOLDER
 66
1
 70
1
 40
0.000000
 41
0.000000
 39
0.000000
  0
VERTEX
  8
SOLDER
 10
2252.445953
 20
991.154229
 40
0.000000
 41
0.000000
 42
0.000000
  0
VERTEX
  8
SOLDER
 10
2243.445953
 20
975.565771
 40
0.000000
 41
0.000000
 42
0.000000
  0
VERTEX
  8
SOLDER
 10
2178.494047
 20
1013.065771
 40
0.000000
 41
0.000000
 42
0.000000
  0
VERTEX
  8
SOLDER
 10
2187.494047
 20
1028.654229
 40
0.000000
 41
0.000000
 42
0.000000
  0
SEQEND
  0
POLYLINE
  8
SOLDER
 66
1
 70
1
 40
0.000000
 41
0.000000
 39
0.000000
  0
VERTEX
  8
SOLDER
 10
2265.445953
 20
1013.674229
 40
0.000000
 41
0.000000
 42
0.000000
  0
VERTEX
  8
SOLDER
 10
2256.445953
 20
998.085771
 40
0.000000
 41
0.000000
 42
0.000000
  0
VERTEX
  8
SOLDER
 10
2191.494047
 20
1035.585771
 40
0.000000
 41
0.000000
 42
0.000000
  0
VERTEX
  8
SOLDER
 10
2200.494047
 20
1051.174229
 40
0.000000
 41
0.000000
 42
0.000000
  0
SEQEND
  0
POLYLINE
  8
SOLDER
 66
1
 70
1
 40
0.000000
 41
0.000000
 39
0.000000
  0
VERTEX
  8
SOLDER
 10
2278.445953
 20
1036.184229
 40
0.000000
 41
0.000000
 42
0.000000
  0
VERTEX
  8
SOLDER
 10
2269.445953
 20
1020.595771
 40
0.000000
 41
0.000000
 42
0.000000
  0
VERTEX
  8
SOLDER
 10
2204.494047
 20
1058.095771
 40
0.000000
 41
0.000000
 42
0.000000
  0
VERTEX
  8
SOLDER
 10
2213.494047
 20
1073.684229
 40
0.000000
 41
0.000000
 42
0.000000
  0
SEQEND
  0
POLYLINE
  8
SOLDER
 66
1
 70
1
 40
0.000000
 41
0.000000
 39
0.000000
  0
VERTEX
  8
SOLDER
 10
2291.445953
 20
1058.704229
 40
0.000000
 41
0.000000
 42
0.000000
  0
VERTEX
  8
SOLDER
 10
2282.445953
 20
1043.115771
 40
0.000000
 41
0.000000
 42
0.000000
  0
VERTEX
  8
SOLDER
 10
2217.494047
 20
1080.615771
 40
0.000000
 41
0.000000
 42
0.000000
  0
VERTEX
  8
SOLDER
 10
2226.494047
 20
1096.204229
 40
0.000000
 41
0.000000
 42
0.000000
  0
SEQEND
  0
POLYLINE
  8
SOLDER
 66
1
 70
1
 40
0.000000
 41
0.000000
 39
0.000000
  0
VERTEX
  8
SOLDER
 10
2304.445953
 20
1081.224229
 40
0.000000
 41
0.000000
 42
0.000000
  0
VERTEX
  8
SOLDER
 10
2295.445953
 20
1065.635771
 40
0.000000
 41
0.000000
 42
0.000000
  0
VERTEX
  8
SOLDER
 10
2230.494047
 20
1103.135771
 40
0.000000
 41
0.000000
 42
0.000000
  0
VERTEX
  8
SOLDER
 10
2239.494047
 20
1118.724229
 40
0.000000
 41
0.000000
 42
0.000000
  0
SEQEND
  0
POLYLINE
  8
SOLDER
 66
1
 70
1
 40
0.000000
 41
0.000000
 39
0.000000
  0
VERTEX
  8
SOLDER
 10
2317.445953
 20
1103.734229
 40
0.000000
 41
0.000000
 42
0.000000
  0
VERTEX
  8
SOLDER
 10
2308.445953
 20
1088.145771
 40
0.000000
 41
0.000000
 42
0.000000
  0
VERTEX
  8
SOLDER
 10
2243.494047
 20
1125.645771
 40
0.000000
 41
0.000000
 42
0.000000
  0
VERTEX
  8
SOLDER
 10
2252.494047
 20
1141.234229
 40
0.000000
 41
0.000000
 42
0.000000
  0
SEQEND
  0
POLYLINE
  8
SOLDER
 66
1
 70
1
 40
0.000000
 41
0.000000
 39
0.000000
  0
VERTEX
  8
SOLDER
 10
2330.445953
 20
1126.254229
 40
0.000000
 41
0.000000
 42
0.000000
  0
VERTEX
  8
SOLDER
 10
2321.445953
 20
1110.665771
 40
0.000000
 41
0.000000
 42
0.000000
  0
VERTEX
  8
SOLDER
 10
2256.494047
 20
1148.165771
 40
0.000000
 41
0.000000
 42
0.000000
  0
VERTEX
  8
SOLDER
 10
2265.494047
 20
1163.754229
 40
0.000000
 41
0.000000
 42
0.000000
  0
SEQEND
  0
POLYLINE
  8
SOLDER
 66
1
 70
1
 40
0.000000
 41
0.000000
 39
0.000000
  0
VERTEX
  8
SOLDER
 10
2343.445953
 20
1148.774229
 40
0.000000
 41
0.000000
 42
0.000000
  0
VERTEX
  8
SOLDER
 10
2334.445953
 20
1133.185771
 40
0.000000
 41
0.000000
 42
0.000000
  0
VERTEX
  8
SOLDER
 10
2269.494047
 20
1170.685771
 40
0.000000
 41
0.000000
 42
0.000000
  0
VERTEX
  8
SOLDER
 10
2278.494047
 20
1186.274229
 40
0.000000
 41
0.000000
 42
0.000000
  0
SEQEND
  0
POLYLINE
  8
SOLDER
 66
1
 70
1
 40
0.000000
 41
0.000000
 39
0.000000
  0
VERTEX
  8
SOLDER
 10
2356.445953
 20
1171.284229
 40
0.000000
 41
0.000000
 42
0.000000
  0
VERTEX
  8
SOLDER
 10
2347.445953
 20
1155.695771
 40
0.000000
 41
0.000000
 42
0.000000
  0
VERTEX
  8
SOLDER
 10
2282.494047
 20
1193.195771
 40
0.000000
 41
0.000000
 42
0.000000
  0
VERTEX
  8
SOLDER
 10
2291.494047
 20
1208.784229
 40
0.000000
 41
0.000000
 42
0.000000
  0
SEQEND
  0
POLYLINE
  8
SOLDER
 66
1
 70
1
 40
0.000000
 41
0.000000
 39
0.000000
  0
VERTEX
  8
SOLDER
 10
1684.505953
 20
1859.454229
 40
0.000000
 41
0.000000
 42
0.000000
  0
VERTEX
  8
SOLDER
 10
1675.505953
 20
1843.865771
 40
0.000000
 41
0.000000
 42
0.000000
  0
VERTEX
  8
SOLDER
 10
1610.554047
 20
1881.365771
 40
0.000000
 41
0.000000
 42
0.000000
  0
VERTEX
  8
SOLDER
 10
1619.554047
 20
1896.954229
 40
0.000000
 41
0.000000
 42
0.000000
  0
SEQEND
  0
POLYLINE
  8
SOLDER
 66
1
 70
1
 40
0.000000
 41
0.000000
 39
0.000000
  0
VERTEX
  8
SOLDER
 10
1671.505953
 20
1836.934229
 40
0.000000
 41
0.000000
 42
0.000000
  0
VERTEX
  8
SOLDER
 10
1662.505953
 20
1821.345771
 40
0.000000
 41
0.000000
 42
0.000000
  0
VERTEX
  8
SOLDER
 10
1597.554047
 20
1858.845771
 40
0.000000
 41
0.000000
 42
0.000000
  0
VERTEX
  8
SOLDER
 10
1606.554047
 20
1874.434229
 40
0.000000
 41
0.000000
 42
0.000000
  0
SEQEND
  0
POLYLINE
  8
SOLDER
 66
1
 70
1
 40
0.000000
 41
0.000000
 39
0.000000
  0
VERTEX
  8
SOLDER
 10
1658.505953
 20
1814.414229
 40
0.000000
 41
0.000000
 42
0.000000
  0
VERTEX
  8
SOLDER
 10
1649.505953
 20
1798.825771
 40
0.000000
 41
0.000000
 42
0.000000
  0
VERTEX
  8
SOLDER
 10
1584.554047
 20
1836.325771
 40
0.000000
 41
0.000000
 42
0.000000
  0
VERTEX
  8
SOLDER
 10
1593.554047
 20
1851.914229
 40
0.000000
 41
0.000000
 42
0.000000
  0
SEQEND
  0
POLYLINE
  8
SOLDER
 66
1
 70
1
 40
0.000000
 41
0.000000
 39
0.000000
  0
VERTEX
  8
SOLDER
 10
1645.505953
 20
1791.904229
 40
0.000000
 41
0.000000
 42
0.000000
  0
VERTEX
  8
SOLDER
 10
1636.505953
 20
1776.315771
 40
0.000000
 41
0.000000
 42
0.000000
  0
VERTEX
  8
SOLDER
 10
1571.554047
 20
1813.815771
 40
0.000000
 41
0.000000
 42
0.000000
  0
VERTEX
  8
SOLDER
 10
1580.554047
 20
1829.404229
 40
0.000000
 41
0.000000
 42
0.000000
  0
SEQEND
  0
POLYLINE
  8
SOLDER
 66
1
 70
1
 40
0.000000
 41
0.000000
 39
0.000000
  0
VERTEX
  8
SOLDER
 10
1632.505953
 20
1769.384229
 40
0.000000
 41
0.000000
 42
0.000000
  0
VERTEX
  8
SOLDER
 10
1623.505953
 20
1753.795771
 40
0.000000
 41
0.000000
 42
0.000000
  0
VERTEX
  8
SOLDER
 10
1558.554047
 20
1791.295771
 40
0.000000
 41
0.000000
 42
0.000000
  0
VERTEX
  8
SOLDER
 10
1567.554047
 20
1806.884229
 40
0.000000
 41
0.000000
 42
0.000000
  0
SEQEND
  0
POLYLINE
  8
SOLDER
 66
1
 70
1
 40
0.000000
 41
0.000000
 39
0.000000
  0
VERTEX
  8
SOLDER
 10
1619.505953
 20
1746.864229
 40
0.000000
 41
0.000000
 42
0.000000
  0
VERTEX
  8
SOLDER
 10
1610.505953
 20
1731.275771
 40
0.000000
 41
0.000000
 42
0.000000
  0
VERTEX
  8
SOLDER
 10
1545.554047
 20
1768.775771
 40
0.000000
 41
0.000000
 42
0.000000
  0
VERTEX
  8
SOLDER
 10
1554.554047
 20
1784.364229
 40
0.000000
 41
0.000000
 42
0.000000
  0
SEQEND
  0
POLYLINE
  8
SOLDER
 66
1
 70
1
 40
0.000000
 41
0.000000
 39
0.000000
  0
VERTEX
  8
SOLDER
 10
1606.505953
 20
1724.354229
 40
0.000000
 41
0.000000
 42
0.000000
  0
VERTEX
  8
SOLDER
 10
1597.505953
 20
1708.765771
 40
0.000000
 41
0.000000
 42
0.000000
  0
VERTEX
  8
SOLDER
 10
1532.554047
 20
1746.265771
 40
0.000000
 41
0.000000
 42
0.000000
  0
VERTEX
  8
SOLDER
 10
1541.554047
 20
1761.854229
 40
0.000000
 41
0.000000
 42
0.000000
  0
SEQEND
  0
POLYLINE
  8
SOLDER
 66
1
 70
1
 40
0.000000
 41
0.000000
 39
0.000000
  0
VERTEX
  8
SOLDER
 10
1593.505953
 20
1701.834229
 40
0.000000
 41
0.000000
 42
0.000000
  0
VERTEX
  8
SOLDER
 10
1584.505953
 20
1686.245771
 40
0.000000
 41
0.000000
 42
0.000000
  0
VERTEX
  8
SOLDER
 10
1519.554047
 20
1723.745771
 40
0.000000
 41
0.000000
 42
0.000000
  0
VERTEX
  8
SOLDER
 10
1528.554047
 20
1739.334229
 40
0.000000
 41
0.000000
 42
0.000000
  0
SEQEND
  0
POLYLINE
  8
SOLDER
 66
1
 70
1
 40
0.000000
 41
0.000000
 39
0.000000
  0
VERTEX
  8
SOLDER
 10
1580.505953
 20
1679.314229
 40
0.000000
 41
0.000000
 42
0.000000
  0
VERTEX
  8
SOLDER
 10
1571.505953
 20
1663.725771
 40
0.000000
 41
0.000000
 42
0.000000
  0
VERTEX
  8
SOLDER
 10
1506.554047
 20
1701.225771
 40
0.000000
 41
0.000000
 42
0.000000
  0
VERTEX
  8
SOLDER
 10
1515.554047
 20
1716.814229
 40
0.000000
 41
0.000000
 42
0.000000
  0
SEQEND
  0
POLYLINE
  8
SOLDER
 66
1
 70
1
 40
0.000000
 41
0.000000
 39
0.000000
  0
VERTEX
  8
SOLDER
 10
1567.505953
 20
1656.804229
 40
0.000000
 41
0.000000
 42
0.000000
  0
VERTEX
  8
SOLDER
 10
1558.505953
 20
1641.215771
 40
0.000000
 41
0.000000
 42
0.000000
  0
VERTEX
  8
SOLDER
 10
1493.554047
 20
1678.715771
 40
0.000000
 41
0.000000
 42
0.000000
  0
VERTEX
  8
SOLDER
 10
1502.554047
 20
1694.304229
 40
0.000000
 41
0.000000
 42
0.000000
  0
SEQEND
  0
POLYLINE
  8
SOLDER
 66
1
 70
1
 40
0.000000
 41
0.000000
 39
0.000000
  0
VERTEX
  8
SOLDER
 10
1554.505953
 20
1634.284229
 40
0.000000
 41
0.000000
 42
0.000000
  0
VERTEX
  8
SOLDER
 10
1545.505953
 20
1618.695771
 40
0.000000
 41
0.000000
 42
0.000000
  0
VERTEX
  8
SOLDER
 10
1480.554047
 20
1656.195771
 40
0.000000
 41
0.000000
 42
0.000000
  0
VERTEX
  8
SOLDER
 10
1489.554047
 20
1671.784229
 40
0.000000
 41
0.000000
 42
0.000000
  0
SEQEND
  0
POLYLINE
  8
SOLDER
 66
1
 70
1
 40
0.000000
 41
0.000000
 39
0.000000
  0
VERTEX
  8
SOLDER
 10
1541.505953
 20
1611.774229
 40
0.000000
 41
0.000000
 42
0.000000
  0
VERTEX
  8
SOLDER
 10
1532.505953
 20
1596.185771
 40
0.000000
 41
0.000000
 42
0.000000
  0
VERTEX
  8
SOLDER
 10
1467.554047
 20
1633.685771
 40
0.000000
 41
0.000000
 42
0.000000
  0
VERTEX
  8
SOLDER
 10
1476.554047
 20
1649.274229
 40
0.000000
 41
0.000000
 42
0.000000
  0
SEQEND
  0
POLYLINE
  8
SOLDER
 66
1
 70
1
 40
0.000000
 41
0.000000
 39
0.000000
  0
VERTEX
  8
SOLDER
 10
1528.505953
 20
1589.254229
 40
0.000000
 41
0.000000
 42
0.000000
  0
VERTEX
  8
SOLDER
 10
1519.505953
 20
1573.665771
 40
0.000000
 41
0.000000
 42
0.000000
  0
VERTEX
  8
SOLDER
 10
1454.554047
 20
1611.165771
 40
0.000000
 41
0.000000
 42
0.000000
  0
VERTEX
  8
SOLDER
 10
1463.554047
 20
1626.754229
 40
0.000000
 41
0.000000
 42
0.000000
  0
SEQEND
  0
POLYLINE
  8
SOLDER
 66
1
 70
1
 40
0.000000
 41
0.000000
 39
0.000000
  0
VERTEX
  8
SOLDER
 10
1515.505953
 20
1566.734229
 40
0.000000
 41
0.000000
 42
0.000000
  0
VERTEX
  8
SOLDER
 10
1506.505953
 20
1551.145771
 40
0.000000
 41
0.000000
 42
0.000000
  0
VERTEX
  8
SOLDER
 10
1441.554047
 20
1588.645771
 40
0.000000
 41
0.000000
 42
0.000000
  0
VERTEX
  8
SOLDER
 10
1450.554047
 20
1604.234229
 40
0.000000
 41
0.000000
 42
0.000000
  0
SEQEND
  0
POLYLINE
  8
SOLDER
 66
1
 70
1
 40
0.000000
 41
0.000000
 39
0.000000
  0
VERTEX
  8
SOLDER
 10
1502.505953
 20
1544.224229
 40
0.000000
 41
0.000000
 42
0.000000
  0
VERTEX
  8
SOLDER
 10
1493.505953
 20
1528.635771
 40
0.000000
 41
0.000000
 42
0.000000
  0
VERTEX
  8
SOLDER
 10
1428.554047
 20
1566.135771
 40
0.000000
 41
0.000000
 42
0.000000
  0
VERTEX
  8
SOLDER
 10
1437.554047
 20
1581.724229
 40
0.000000
 41
0.000000
 42
0.000000
  0
SEQEND
  0
POLYLINE
  8
SOLDER
 66
1
 70
1
 40
0.000000
 41
0.000000
 39
0.000000
  0
VERTEX
  8
SOLDER
 10
1489.505953
 20
1521.704229
 40
0.000000
 41
0.000000
 42
0.000000
  0
VERTEX
  8
SOLDER
 10
1480.505953
 20
1506.115771
 40
0.000000
 41
0.000000
 42
0.000000
  0
VERTEX
  8
SOLDER
 10
1415.554047
 20
1543.615771
 40
0.000000
 41
0.000000
 42
0.000000
  0
VERTEX
  8
SOLDER
 10
1424.554047
 20
1559.204229
 40
0.000000
 41
0.000000
 42
0.000000
  0
SEQEND
  0
POLYLINE
  8
SOLDER
 66
1
 70
1
 40
0.000000
 41
0.000000
 39
0.000000
  0
VERTEX
  8
SOLDER
 10
1476.505953
 20
1499.184229
 40
0.000000
 41
0.000000
 42
0.000000
  0
VERTEX
  8
SOLDER
 10
1467.505953
 20
1483.595771
 40
0.000000
 41
0.000000
 42
0.000000
  0
VERTEX
  8
SOLDER
 10
1402.554047
 20
1521.095771
 40
0.000000
 41
0.000000
 42
0.000000
  0
VERTEX
  8
SOLDER
 10
1411.554047
 20
1536.684229
 40
0.000000
 41
0.000000
 42
0.000000
  0
SEQEND
  0
POLYLINE
  8
SOLDER
 66
1
 70
1
 40
0.000000
 41
0.000000
 39
0.000000
  0
VERTEX
  8
SOLDER
 10
1463.505953
 20
1476.674229
 40
0.000000
 41
0.000000
 42
0.000000
  0
VERTEX
  8
SOLDER
 10
1454.505953
 20
1461.085771
 40
0.000000
 41
0.000000
 42
0.000000
  0
VERTEX
  8
SOLDER
 10
1389.554047
 20
1498.585771
 40
0.000000
 41
0.000000
 42
0.000000
  0
VERTEX
  8
SOLDER
 10
1398.554047
 20
1514.174229
 40
0.000000
 41
0.000000
 42
0.000000
  0
SEQEND
  0
POLYLINE
  8
SOLDER
 66
1
 70
1
 40
0.000000
 41
0.000000
 39
0.000000
  0
VERTEX
  8
SOLDER
 10
1450.505953
 20
1454.154229
 40
0.000000
 41
0.000000
 42
0.000000
  0
VERTEX
  8
SOLDER
 10
1441.505953
 20
1438.565771
 40
0.000000
 41
0.000000
 42
0.000000
  0
VERTEX
  8
SOLDER
 10
1376.554047
 20
1476.065771
 40
0.000000
 41
0.000000
 42
0.000000
  0
VERTEX
  8
SOLDER
 10
1385.554047
 20
1491.654229
 40
0.000000
 41
0.000000
 42
0.000000
  0
SEQEND
  0
POLYLINE
  8
SOLDER
 66
1
 70
1
 40
0.000000
 41
0.000000
 39
0.000000
  0
VERTEX
  8
SOLDER
 10
1437.505953
 20
1431.634229
 40
0.000000
 41
0.000000
 42
0.000000
  0
VERTEX
  8
SOLDER
 10
1428.505953
 20
1416.045771
 40
0.000000
 41
0.000000
 42
0.000000
  0
VERTEX
  8
SOLDER
 10
1363.554047
 20
1453.545771
 40
0.000000
 41
0.000000
 42
0.000000
  0
VERTEX
  8
SOLDER
 10
1372.554047
 20
1469.134229
 40
0.000000
 41
0.000000
 42
0.000000
  0
SEQEND
  0
POLYLINE
  8
SOLDER
 66
1
 70
1
 40
0.000000
 41
0.000000
 39
0.000000
  0
VERTEX
  8
SOLDER
 10
1419.125592
 20
2418.597326
 40
0.000000
 41
0.000000
 42
0.000000
  0
VERTEX
  8
SOLDER
 10
1461.258036
 20
2383.244007
 40
0.000000
 41
0.000000
 42
0.000000
  0
VERTEX
  8
SOLDER
 10
1441.974408
 20
2360.262674
 40
0.000000
 41
0.000000
 42
0.000000
  0
VERTEX
  8
SOLDER
 10
1399.841964
 20
2395.615993
 40
0.000000
 41
0.000000
 42
0.000000
  0
SEQEND
  0
POLYLINE
  8
SOLDER
 66
1
 70
1
 40
0.000000
 41
0.000000
 39
0.000000
  0
VERTEX
  8
SOLDER
 10
1386.985592
 20
2380.287326
 40
0.000000
 41
0.000000
 42
0.000000
  0
VERTEX
  8
SOLDER
 10
1429.118036
 20
2344.934007
 40
0.000000
 41
0.000000
 42
0.000000
  0
VERTEX
  8
SOLDER
 10
1409.834408
 20
2321.952674
 40
0.000000
 41
0.000000
 42
0.000000
  0
VERTEX
  8
SOLDER
 10
1367.701964
 20
2357.305993
 40
0.000000
 41
0.000000
 42
0.000000
  0
SEQEND
  0
POLYLINE
  8
SOLDER
 66
1
 70
1
 40
0.000000
 41
0.000000
 39
0.000000
  0
VERTEX
  8
SOLDER
 10
1354.845592
 20
2341.987326
 40
0.000000
 41
0.000000
 42
0.000000
  0
VERTEX
  8
SOLDER
 10
1396.978036
 20
2306.634007
 40
0.000000
 41
0.000000
 42
0.000000
  0
VERTEX
  8
SOLDER
 10
1377.694408
 20
2283.652674
 40
0.000000
 41
0.000000
 42
0.000000
  0
VERTEX
  8
SOLDER
 10
1335.561964
 20
2319.005993
 40
0.000000
 41
0.000000
 42
0.000000
  0
SEQEND
  0
POLYLINE
  8
SOLDER
 66
1
 70
1
 40
0.000000
 41
0.000000
 39
0.000000
  0
VERTEX
  8
SOLDER
 10
1322.705592
 20
2303.687326
 40
0.000000
 41
0.000000
 42
0.000000
  0
VERTEX
  8
SOLDER
 10
1364.838036
 20
2268.334007
 40
0.000000
 41
0.000000
 42
0.000000
  0
VERTEX
  8
SOLDER
 10
1345.554408
 20
2245.352674
 40
0.000000
 41
0.000000
 42
0.000000
  0
VERTEX
  8
SOLDER
 10
1303.421964
 20
2280.705993
 40
0.000000
 41
0.000000
 42
0.000000
  0
SEQEND
  0
POLYLINE
  8
SOLDER
 66
1
 70
1
 40
0.000000
 41
0.000000
 39
0.000000
  0
VERTEX
  8
SOLDER
 10
1290.565592
 20
2265.387326
 40
0.000000
 41
0.000000
 42
0.000000
  0
VERTEX
  8
SOLDER
 10
1332.698036
 20
2230.034007
 40
0.000000
 41
0.000000
 42
0.000000
  0
VERTEX
  8
SOLDER
 10
1313.414408
 20
2207.052674
 40
0.000000
 41
0.000000
 42
0.000000
  0
VERTEX
  8
SOLDER
 10
1271.281964
 20
2242.405993
 40
0.000000
 41
0.000000
 42
0.000000
  0
SEQEND
  0
POLYLINE
  8
SOLDER
 66
1
 70
1
 40
0.000000
 41
0.000000
 39
0.000000
  0
VERTEX
  8
SOLDER
 10
1258.425592
 20
2227.077326
 40
0.000000
 41
0.000000
 42
0.000000
  0
VERTEX
  8
SOLDER
 10
1300.558036
 20
2191.724007
 40
0.000000
 41
0.000000
 42
0.000000
  0
VERTEX
  8
SOLDER
 10
1281.274408
 20
2168.742674
 40
0.000000
 41
0.000000
 42
0.000000
  0
VERTEX
  8
SOLDER
 10
1239.141964
 20
2204.095993
 40
0.000000
 41
0.000000
 42
0.000000
  0
SEQEND
  0
POLYLINE
  8
SOLDER
 66
1
 70
1
 40
0.000000
 41
0.000000
 39
0.000000
  0
VERTEX
  8
SOLDER
 10
1226.285592
 20
2188.777326
 40
0.000000
 41
0.000000
 42
0.000000
  0
VERTEX
  8
SOLDER
 10
1268.418036
 20
2153.424007
 40
0.000000
 41
0.000000
 42
0.000000
  0
VERTEX
  8
SOLDER
 10
1249.134408
 20
2130.442674
 40
0.000000
 41
0.000000
 42
0.000000
  0
VERTEX
  8
SOLDER
 10
1207.001964
 20
2165.795993
 40
0.000000
 41
0.000000
 42
0.000000
  0
SEQEND
  0
POLYLINE
  8
SOLDER
 66
1
 70
1
 40
0.000000
 41
0.000000
 39
0.000000
  0
VERTEX
  8
SOLDER
 10
1000.865592
 20
2769.557326
 40
0.000000
 41
0.000000
 42
0.000000
  0
VERTEX
  8
SOLDER
 10
1042.998036
 20
2734.204007
 40
0.000000
 41
0.000000
 42
0.000000
  0
VERTEX
  8
SOLDER
 10
1023.714408
 20
2711.222674
 40
0.000000
 41
0.000000
 42
0.000000
  0
VERTEX
  8
SOLDER
 10
981.581964
 20
2746.575993
 40
0.000000
 41
0.000000
 42
0.000000
  0
SEQEND
  0
POLYLINE
  8
SOLDER
 66
1
 70
1
 40
0.000000
 41
0.000000
 39
0.000000
  0
VERTEX
  8
SOLDER
 10
968.725592
 20
2731.257326
 40
0.000000
 41
0.000000
 42
0.000000
  0
VERTEX
  8
SOLDER
 10
1010.858036
 20
2695.904007
 40
0.000000
 41
0.000000
 42
0.000000
  0
VERTEX
  8
SOLDER
 10
991.574408
 20
2672.922674
 40
0.000000
 41
0.000000
 42
0.000000
  0
VERTEX
  8
SOLDER
 10
949.441964
 20
2708.275993
 40
0.000000
 41
0.000000
 42
0.000000
  0
SEQEND
  0
POLYLINE
  8
SOLDER
 66
1
 70
1
 40
0.000000
 41
0.000000
 39
0.000000
  0
VERTEX
  8
SOLDER
 10
936.585592
 20
2692.947326
 40
0.000000
 41
0.000000
 42
0.000000
  0
VERTEX
  8
SOLDER
 10
978.718036
 20
2657.594007
 40
0.000000
 41
0.000000
 42
0.000000
  0
VERTEX
  8
SOLDER
 10
959.434408
 20
2634.612674
 40
0.000000
 41
0.000000
 42
0.000000
  0
VERTEX
  8
SOLDER
 10
917.301964
 20
2669.965993
 40
0.000000
 41
0.000000
 42
0.000000
  0
SEQEND
  0
POLYLINE
  8
SOLDER
 66
1
 70
1
 40
0.000000
 41
0.000000
 39
0.000000
  0
VERTEX
  8
SOLDER
 10
904.445592
 20
2654.647326
 40
0.000000
 41
0.000000
 42
0.000000
  0
VERTEX
  8
SOLDER
 10
946.578036
 20
2619.294007
 40
0.000000
 41
0.000000
 42
0.000000
  0
VERTEX
  8
SOLDER
 10
927.294408
 20
2596.312674
 40
0.000000
 41
0.000000
 42
0.000000
  0
VERTEX
  8
SOLDER
 10
885.161964
 20
2631.665993
 40
0.000000
 41
0.000000
 42
0.000000
  0
SEQEND
  0
POLYLINE
  8
SOLDER
 66
1
 70
1
 40
0.000000
 41
0.000000
 39
0.000000
  0
VERTEX
  8
SOLDER
 10
872.305592
 20
2616.347326
 40
0.000000
 41
0.000000
 42
0.000000
  0
VERTEX
  8
SOLDER
 10
914.438036
 20
2580.994007
 40
0.000000
 41
0.000000
 42
0.000000
  0
VERTEX
  8
SOLDER
 10
895.154408
 20
2558.012674
 40
0.000000
 41
0.000000
 42
0.000000
  0
VERTEX
  8
SOLDER
 10
853.021964
 20
2593.365993
 40
0.000000
 41
0.000000
 42
0.000000
  0
SEQEND
  0
POLYLINE
  8
SOLDER
 66
1
 70
1
 40
0.000000
 41
0.000000
 39
0.000000
  0
VERTEX
  8
SOLDER
 10
863.014408
 20
2519.712674
 40
0.000000
 41
0.000000
 42
0.000000
  0
VERTEX
  8
SOLDER
 10
820.881964
 20
2555.065993
 40
0.000000
 41
0.000000
 42
0.000000
  0
VERTEX
  8
SOLDER
 10
840.165592
 20
2578.047326
 40
0.000000
 41
0.000000
 42
0.000000
  0
VERTEX
  8
SOLDER
 10
882.298036
 20
2542.694007
 40
0.000000
 41
0.000000
 42
0.000000
  0
SEQEND
  0
POLYLINE
  8
SOLDER
 66
1
 70
1
 40
0.000000
 41
0.000000
 39
0.000000
  0
VERTEX
  8
SOLDER
 10
830.874408
 20
2481.402674
 40
0.000000
 41
0.000000
 42
0.000000
  0
VERTEX
  8
SOLDER
 10
788.741964
 20
2516.755993
 40
0.000000
 41
0.000000
 42
0.000000
  0
VERTEX
  8
SOLDER
 10
808.025592
 20
2539.737326
 40
0.000000
 41
0.000000
 42
0.000000
  0
VERTEX
  8
SOLDER
 10
850.158036
 20
2504.384007
 40
0.000000
 41
0.000000
 42
0.000000
  0
SEQEND
  0
POLYLINE
  8
SOLDER
 66
1
 70
1
 40
0.000000
 41
0.000000
 39
0.000000
  0
VERTEX
  8
SOLDER
 10
1144.297326
 20
2760.814408
 40
0.000000
 41
0.000000
 42
0.000000
  0
VERTEX
  8
SOLDER
 10
1108.944007
 20
2718.681964
 40
0.000000
 41
0.000000
 42
0.000000
  0
VERTEX
  8
SOLDER
 10
1085.962674
 20
2737.965592
 40
0.000000
 41
0.000000
 42
0.000000
  0
VERTEX
  8
SOLDER
 10
1121.315993
 20
2780.098036
 40
0.000000
 41
0.000000
 42
0.000000
  0
SEQEND
  0
POLYLINE
  8
SOLDER
 66
1
 70
1
 40
0.000000
 41
0.000000
 39
0.000000
  0
VERTEX
  8
SOLDER
 10
1182.597326
 20
2728.674408
 40
0.000000
 41
0.000000
 42
0.000000
  0
VERTEX
  8
SOLDER
 10
1147.244007
 20
2686.541964
 40
0.000000
 41
0.000000
 42
0.000000
  0
VERTEX
  8
SOLDER
 10
1124.262674
 20
2705.825592
 40
0.000000
 41
0.000000
 42
0.000000
  0
VERTEX
  8
SOLDER
 10
1159.615993
 20
2747.958036
 40
0.000000
 41
0.000000
 42
0.000000
  0
SEQEND
  0
POLYLINE
  8
SOLDER
 66
1
 70
1
 40
0.000000
 41
0.000000
 39
0.000000
  0
VERTEX
  8
SOLDER
 10
1220.907326
 20
2696.534408
 40
0.000000
 41
0.000000
 42
0.000000
  0
VERTEX
  8
SOLDER
 10
1185.554007
 20
2654.401964
 40
0.000000
 41
0.000000
 42
0.000000
  0
VERTEX
  8
SOLDER
 10
1162.572674
 20
2673.685592
 40
0.000000
 41
0.000000
 42
0.000000
  0
VERTEX
  8
SOLDER
 10
1197.925993
 20
2715.818036
 40
0.000000
 41
0.000000
 42
0.000000
  0
SEQEND
  0
POLYLINE
  8
SOLDER
 66
1
 70
1
 40
0.000000
 41
0.000000
 39
0.000000
  0
VERTEX
  8
SOLDER
 10
1259.207326
 20
2664.394408
 40
0.000000
 41
0.000000
 42
0.000000
  0
VERTEX
  8
SOLDER
 10
1223.854007
 20
2622.261964
 40
0.000000
 41
0.000000
 42
0.000000
  0
VERTEX
  8
SOLDER
 10
1200.872674
 20
2641.545592
 40
0.000000
 41
0.000000
 42
0.000000
  0
VERTEX
  8
SOLDER
 10
1236.225993
 20
2683.678036
 40
0.000000
 41
0.000000
 42
0.000000
  0
SEQEND
  0
POLYLINE
  8
SOLDER
 66
1
 70
1
 40
0.000000
 41
0.000000
 39
0.000000
  0
VERTEX
  8
SOLDER
 10
1297.507326
 20
2632.254408
 40
0.000000
 41
0.000000
 42
0.000000
  0
VERTEX
  8
SOLDER
 10
1262.154007
 20
2590.121964
 40
0.000000
 41
0.000000
 42
0.000000
  0
VERTEX
  8
SOLDER
 10
1239.172674
 20
2609.405592
 40
0.000000
 41
0.000000
 42
0.000000
  0
VERTEX
  8
SOLDER
 10
1274.525993
 20
2651.538036
 40
0.000000
 41
0.000000
 42
0.000000
  0
SEQEND
  0
POLYLINE
  8
SOLDER
 66
1
 70
1
 40
0.000000
 41
0.000000
 39
0.000000
  0
VERTEX
  8
SOLDER
 10
1335.807326
 20
2600.114408
 40
0.000000
 41
0.000000
 42
0.000000
  0
VERTEX
  8
SOLDER
 10
1300.454007
 20
2557.981964
 40
0.000000
 41
0.000000
 42
0.000000
  0
VERTEX
  8
SOLDER
 10
1277.472674
 20
2577.265592
 40
0.000000
 41
0.000000
 42
0.000000
  0
VERTEX
  8
SOLDER
 10
1312.825993
 20
2619.398036
 40
0.000000
 41
0.000000
 42
0.000000
  0
SEQEND
  0
POLYLINE
  8
SOLDER
 66
1
 70
1
 40
0.000000
 41
0.000000
 39
0.000000
  0
VERTEX
  8
SOLDER
 10
1315.782674
 20
2545.125592
 40
0.000000
 41
0.000000
 42
0.000000
  0
VERTEX
  8
SOLDER
 10
1351.135993
 20
2587.258036
 40
0.000000
 41
0.000000
 42
0.000000
  0
VERTEX
  8
SOLDER
 10
1374.117326
 20
2567.974408
 40
0.000000
 41
0.000000
 42
0.000000
  0
VERTEX
  8
SOLDER
 10
1338.764007
 20
2525.841964
 40
0.000000
 41
0.000000
 42
0.000000
  0
SEQEND
  0
POLYLINE
  8
SOLDER
 66
1
 70
1
 40
0.000000
 41
0.000000
 39
0.000000
  0
VERTEX
  8
SOLDER
 10
1354.082674
 20
2512.985592
 40
0.000000
 41
0.000000
 42
0.000000
  0
VERTEX
  8
SOLDER
 10
1389.435993
 20
2555.118036
 40
0.000000
 41
0.000000
 42
0.000000
  0
VERTEX
  8
SOLDER
 10
1412.417326
 20
2535.834408
 40
0.000000
 41
0.000000
 42
0.000000
  0
VERTEX
  8
SOLDER
 10
1377.064007
 20
2493.701964
 40
0.000000
 41
0.000000
 42
0.000000
  0
SEQEND
  0
POLYLINE
  8
SOLDER
 66
1
 70
1
 40
0.000000
 41
0.000000
 39
0.000000
  0
VERTEX
  8
SOLDER
 10
1392.382674
 20
2480.845592
 40
0.000000
 41
0.000000
 42
0.000000
  0
VERTEX
  8
SOLDER
 10
1427.735993
 20
2522.978036
 40
0.000000
 41
0.000000
 42
0.000000
  0
VERTEX
  8
SOLDER
 10
1450.717326
 20
2503.694408
 40
0.000000
 41
0.000000
 42
0.000000
  0
VERTEX
  8
SOLDER
 10
1415.364007
 20
2461.561964
 40
0.000000
 41
0.000000
 42
0.000000
  0
SEQEND
  0
POLYLINE
  8
SOLDER
 66
1
 70
1
 40
0.000000
 41
0.000000
 39
0.000000
  0
VERTEX
  8
SOLDER
 10
857.617326
 20
2419.154408
 40
0.000000
 41
0.000000
 42
0.000000
  0
VERTEX
  8
SOLDER
 10
822.264007
 20
2377.021964
 40
0.000000
 41
0.000000
 42
0.000000
  0
VERTEX
  8
SOLDER
 10
799.282674
 20
2396.305592
 40
0.000000
 41
0.000000
 42
0.000000
  0
VERTEX
  8
SOLDER
 10
834.635993
 20
2438.438036
 40
0.000000
 41
0.000000
 42
0.000000
  0
SEQEND
  0
POLYLINE
  8
SOLDER
 66
1
 70
1
 40
0.000000
 41
0.000000
 39
0.000000
  0
VERTEX
  8
SOLDER
 10
895.917326
 20
2387.014408
 40
0.000000
 41
0.000000
 42
0.000000
  0
VERTEX
  8
SOLDER
 10
860.564007
 20
2344.881964
 40
0.000000
 41
0.000000
 42
0.000000
  0
VERTEX
  8
SOLDER
 10
837.582674
 20
2364.165592
 40
0.000000
 41
0.000000
 42
0.000000
  0
VERTEX
  8
SOLDER
 10
872.935993
 20
2406.298036
 40
0.000000
 41
0.000000
 42
0.000000
  0
SEQEND
  0
POLYLINE
  8
SOLDER
 66
1
 70
1
 40
0.000000
 41
0.000000
 39
0.000000
  0
VERTEX
  8
SOLDER
 10
934.217326
 20
2354.874408
 40
0.000000
 41
0.000000
 42
0.000000
  0
VERTEX
  8
SOLDER
 10
898.864007
 20
2312.741964
 40
0.000000
 41
0.000000
 42
0.000000
  0
VERTEX
  8
SOLDER
 10
875.882674
 20
2332.025592
 40
0.000000
 41
0.000000
 42
0.000000
  0
VERTEX
  8
SOLDER
 10
911.235993
 20
2374.158036
 40
0.000000
 41
0.000000
 42
0.000000
  0
SEQEND
  0
POLYLINE
  8
SOLDER
 66
1
 70
1
 40
0.000000
 41
0.000000
 39
0.000000
  0
VERTEX
  8
SOLDER
 10
972.527326
 20
2322.734408
 40
0.000000
 41
0.000000
 42
0.000000
  0
VERTEX
  8
SOLDER
 10
937.174007
 20
2280.601964
 40
0.000000
 41
0.000000
 42
0.000000
  0
VERTEX
  8
SOLDER
 10
914.192674
 20
2299.885592
 40
0.000000
 41
0.000000
 42
0.000000
  0
VERTEX
  8
SOLDER
 10
949.545993
 20
2342.018036
 40
0.000000
 41
0.000000
 42
0.000000
  0
SEQEND
  0
POLYLINE
  8
SOLDER
 66
1
 70
1
 40
0.000000
 41
0.000000
 39
0.000000
  0
VERTEX
  8
SOLDER
 10
1010.827326
 20
2290.594408
 40
0.000000
 41
0.000000
 42
0.000000
  0
VERTEX
  8
SOLDER
 10
975.474007
 20
2248.461964
 40
0.000000
 41
0.000000
 42
0.000000
  0
VERTEX
  8
SOLDER
 10
952.492674
 20
2267.745592
 40
0.000000
 41
0.000000
 42
0.000000
  0
VERTEX
  8
SOLDER
 10
987.845993
 20
2309.878036
 40
0.000000
 41
0.000000
 42
0.000000
  0
SEQEND
  0
POLYLINE
  8
SOLDER
 66
1
 70
1
 40
0.000000
 41
0.000000
 39
0.000000
  0
VERTEX
  8
SOLDER
 10
1049.127326
 20
2258.454408
 40
0.000000
 41
0.000000
 42
0.000000
  0
VERTEX
  8
SOLDER
 10
1013.774007
 20
2216.321964
 40
0.000000
 41
0.000000
 42
0.000000
  0
VERTEX
  8
SOLDER
 10
990.792674
 20
2235.605592
 40
0.000000
 41
0.000000
 42
0.000000
  0
VERTEX
  8
SOLDER
 10
1026.145993
 20
2277.738036
 40
0.000000
 41
0.000000
 42
0.000000
  0
SEQEND
  0
POLYLINE
  8
SOLDER
 66
1
 70
1
 40
0.000000
 41
0.000000
 39
0.000000
  0
VERTEX
  8
SOLDER
 10
1087.427326
 20
2226.314408
 40
0.000000
 41
0.000000
 42
0.000000
  0
VERTEX
  8
SOLDER
 10
1052.074007
 20
2184.181964
 40
0.000000
 41
0.000000
 42
0.000000
  0
VERTEX
  8
SOLDER
 10
1029.092674
 20
2203.465592
 40
0.000000
 41
0.000000
 42
0.000000
  0
VERTEX
  8
SOLDER
 10
1064.445993
 20
2245.598036
 40
0.000000
 41
0.000000
 42
0.000000
  0
SEQEND
  0
POLYLINE
  8
SOLDER
 66
1
 70
1
 40
0.000000
 41
0.000000
 39
0.000000
  0
VERTEX
  8
SOLDER
 10
1125.737326
 20
2194.174408
 40
0.000000
 41
0.000000
 42
0.000000
  0
VERTEX
  8
SOLDER
 10
1090.384007
 20
2152.041964
 40
0.000000
 41
0.000000
 42
0.000000
  0
VERTEX
  8
SOLDER
 10
1067.402674
 20
2171.325592
 40
0.000000
 41
0.000000
 42
0.000000
  0
VERTEX
  8
SOLDER
 10
1102.755993
 20
2213.458036
 40
0.000000
 41
0.000000
 42
0.000000
  0
SEQEND
  0
POLYLINE
  8
SOLDER
 66
1
 70
1
 40
0.000000
 41
0.000000
 39
0.000000
  0
VERTEX
  8
SOLDER
 10
1164.037326
 20
2162.034408
 40
0.000000
 41
0.000000
 42
0.000000
  0
VERTEX
  8
SOLDER
 10
1128.684007
 20
2119.901964
 40
0.000000
 41
0.000000
 42
0.000000
  0
VERTEX
  8
SOLDER
 10
1105.702674
 20
2139.185592
 40
0.000000
 41
0.000000
 42
0.000000
  0
VERTEX
  8
SOLDER
 10
1141.055993
 20
2181.318036
 40
0.000000
 41
0.000000
 42
0.000000
  0
SEQEND
  0
POLYLINE
  8
SOLDER
 66
1
 70
1
 40
0.000000
 41
0.000000
 39
0.000000
  0
VERTEX
  8
SOLDER
 10
960.000000
 20
1045.500000
 40
0.000000
 41
0.000000
 42
0.000000
  0
VERTEX
  8
SOLDER
 10
960.000000
 20
1100.500000
 40
0.000000
 41
0.000000
 42
0.000000
  0
VERTEX
  8
SOLDER
 10
990.000000
 20
1100.500000
 40
0.000000
 41
0.000000
 42
0.000000
  0
VERTEX
  8
SOLDER
 10
990.000000
 20
1045.500000
 40
0.000000
 41
0.000000
 42
0.000000
  0
SEQEND
  0
POLYLINE
  8
SOLDER
 66
1
 70
1
 40
0.000000
 41
0.000000
 39
0.000000
  0
VERTEX
  8
SOLDER
 10
1010.000000
 20
1045.500000
 40
0.000000
 41
0.000000
 42
0.000000
  0
VERTEX
  8
SOLDER
 10
1010.000000
 20
1100.500000
 40
0.000000
 41
0.000000
 42
0.000000
  0
VERTEX
  8
SOLDER
 10
1040.000000
 20
1100.500000
 40
0.000000
 41
0.000000
 42
0.000000
  0
VERTEX
  8
SOLDER
 10
1040.000000
 20
1045.500000
 40
0.000000
 41
0.000000
 42
0.000000
  0
SEQEND
  0
POLYLINE
  8
SOLDER
 66
1
 70
1
 40
0.000000
 41
0.000000
 39
0.000000
  0
VERTEX
  8
SOLDER
 10
1060.000000
 20
1045.500000
 40
0.000000
 41
0.000000
 42
0.000000
  0
VERTEX
  8
SOLDER
 10
1060.000000
 20
1100.500000
 40
0.000000
 41
0.000000
 42
0.000000
  0
VERTEX
  8
SOLDER
 10
1090.000000
 20
1100.500000
 40
0.000000
 41
0.000000
 42
0.000000
  0
VERTEX
  8
SOLDER
 10
1090.000000
 20
1045.500000
 40
0.000000
 41
0.000000
 42
0.000000
  0
SEQEND
  0
POLYLINE
  8
SOLDER
 66
1
 70
1
 40
0.000000
 41
0.000000
 39
0.000000
  0
VERTEX
  8
SOLDER
 10
1110.000000
 20
1045.500000
 40
0.000000
 41
0.000000
 42
0.000000
  0
VERTEX
  8
SOLDER
 10
1110.000000
 20
1100.500000
 40
0.000000
 41
0.000000
 42
0.000000
  0
VERTEX
  8
SOLDER
 10
1140.000000
 20
1100.500000
 40
0.000000
 41
0.000000
 42
0.000000
  0
VERTEX
  8
SOLDER
 10
1140.000000
 20
1045.500000
 40
0.000000
 41
0.000000
 42
0.000000
  0
SEQEND
  0
POLYLINE
  8
SOLDER
 66
1
 70
1
 40
0.000000
 41
0.000000
 39
0.000000
  0
VERTEX
  8
SOLDER
 10
1160.000000
 20
1045.500000
 40
0.000000
 41
0.000000
 42
0.000000
  0
VERTEX
  8
SOLDER
 10
1160.000000
 20
1100.500000
 40
0.000000
 41
0.000000
 42
0.000000
  0
VERTEX
  8
SOLDER
 10
1190.000000
 20
1100.500000
 40
0.000000
 41
0.000000
 42
0.000000
  0
VERTEX
  8
SOLDER
 10
1190.000000
 20
1045.500000
 40
0.000000
 41
0.000000
 42
0.000000
  0
SEQEND
  0
POLYLINE
  8
SOLDER
 66
1
 70
1
 40
0.000000
 41
0.000000
 39
0.000000
  0
VERTEX
  8
SOLDER
 10
1210.000000
 20
1045.500000
 40
0.000000
 41
0.000000
 42
0.000000
  0
VERTEX
  8
SOLDER
 10
1210.000000
 20
1100.500000
 40
0.000000
 41
0.000000
 42
0.000000
  0
VERTEX
  8
SOLDER
 10
1240.000000
 20
1100.500000
 40
0.000000
 41
0.000000
 42
0.000000
  0
VERTEX
  8
SOLDER
 10
1240.000000
 20
1045.500000
 40
0.000000
 41
0.000000
 42
0.000000
  0
SEQEND
  0
POLYLINE
  8
SOLDER
 66
1
 70
1
 40
0.000000
 41
0.000000
 39
0.000000
  0
VERTEX
  8
SOLDER
 10
1260.000000
 20
1045.500000
 40
0.000000
 41
0.000000
 42
0.000000
  0
VERTEX
  8
SOLDER
 10
1260.000000
 20
1100.500000
 40
0.000000
 41
0.000000
 42
0.000000
  0
VERTEX
  8
SOLDER
 10
1290.000000
 20
1100.500000
 40
0.000000
 41
0.000000
 42
0.000000
  0
VERTEX
  8
SOLDER
 10
1290.000000
 20
1045.500000
 40
0.000000
 41
0.000000
 42
0.000000
  0
SEQEND
  0
POLYLINE
  8
SOLDER
 66
1
 70
1
 40
0.000000
 41
0.000000
 39
0.000000
  0
VERTEX
  8
SOLDER
 10
960.000000
 20
499.500000
 40
0.000000
 41
0.000000
 42
0.000000
  0
VERTEX
  8
SOLDER
 10
960.000000
 20
554.500000
 40
0.000000
 41
0.000000
 42
0.000000
  0
VERTEX
  8
SOLDER
 10
990.000000
 20
554.500000
 40
0.000000
 41
0.000000
 42
0.000000
  0
VERTEX
  8
SOLDER
 10
990.000000
 20
499.500000
 40
0.000000
 41
0.000000
 42
0.000000
  0
SEQEND
  0
POLYLINE
  8
SOLDER
 66
1
 70
1
 40
0.000000
 41
0.000000
 39
0.000000
  0
VERTEX
  8
SOLDER
 10
1010.000000
 20
499.500000
 40
0.000000
 41
0.000000
 42
0.000000
  0
VERTEX
  8
SOLDER
 10
1010.000000
 20
554.500000
 40
0.000000
 41
0.000000
 42
0.000000
  0
VERTEX
  8
SOLDER
 10
1040.000000
 20
554.500000
 40
0.000000
 41
0.000000
 42
0.000000
  0
VERTEX
  8
SOLDER
 10
1040.000000
 20
499.500000
 40
0.000000
 41
0.000000
 42
0.000000
  0
SEQEND
  0
POLYLINE
  8
SOLDER
 66
1
 70
1
 40
0.000000
 41
0.000000
 39
0.000000
  0
VERTEX
  8
SOLDER
 10
1060.000000
 20
499.500000
 40
0.000000
 41
0.000000
 42
0.000000
  0
VERTEX
  8
SOLDER
 10
1060.000000
 20
554.500000
 40
0.000000
 41
0.000000
 42
0.000000
  0
VERTEX
  8
SOLDER
 10
1090.000000
 20
554.500000
 40
0.000000
 41
0.000000
 42
0.000000
  0
VERTEX
  8
SOLDER
 10
1090.000000
 20
499.500000
 40
0.000000
 41
0.000000
 42
0.000000
  0
SEQEND
  0
POLYLINE
  8
SOLDER
 66
1
 70
1
 40
0.000000
 41
0.000000
 39
0.000000
  0
VERTEX
  8
SOLDER
 10
1110.000000
 20
499.500000
 40
0.000000
 41
0.000000
 42
0.000000
  0
VERTEX
  8
SOLDER
 10
1110.000000
 20
554.500000
 40
0.000000
 41
0.000000
 42
0.000000
  0
VERTEX
  8
SOLDER
 10
1140.000000
 20
554.500000
 40
0.000000
 41
0.000000
 42
0.000000
  0
VERTEX
  8
SOLDER
 10
1140.000000
 20
499.500000
 40
0.000000
 41
0.000000
 42
0.000000
  0
SEQEND
  0
POLYLINE
  8
SOLDER
 66
1
 70
1
 40
0.000000
 41
0.000000
 39
0.000000
  0
VERTEX
  8
SOLDER
 10
1160.000000
 20
499.500000
 40
0.000000
 41
0.000000
 42
0.000000
  0
VERTEX
  8
SOLDER
 10
1160.000000
 20
554.500000
 40
0.000000
 41
0.000000
 42
0.000000
  0
VERTEX
  8
SOLDER
 10
1190.000000
 20
554.500000
 40
0.000000
 41
0.000000
 42
0.000000
  0
VERTEX
  8
SOLDER
 10
1190.000000
 20
499.500000
 40
0.000000
 41
0.000000
 42
0.000000
  0
SEQEND
  0
POLYLINE
  8
SOLDER
 66
1
 70
1
 40
0.000000
 41
0.000000
 39
0.000000
  0
VERTEX
  8
SOLDER
 10
1240.000000
 20
554.500000
 40
0.000000
 41
0.000000
 42
0.000000
  0
VERTEX
  8
SOLDER
 10
1240.000000
 20
499.500000
 40
0.000000
 41
0.000000
 42
0.000000
  0
VERTEX
  8
SOLDER
 10
1210.000000
 20
499.500000
 40
0.000000
 41
0.000000
 42
0.000000
  0
VERTEX
  8
SOLDER
 10
1210.000000
 20
554.500000
 40
0.000000
 41
0.000000
 42
0.000000
  0
SEQEND
  0
POLYLINE
  8
SOLDER
 66
1
 70
1
 40
0.000000
 41
0.000000
 39
0.000000
  0
VERTEX
  8
SOLDER
 10
1290.000000
 20
554.500000
 40
0.000000
 41
0.000000
 42
0.000000
  0
VERTEX
  8
SOLDER
 10
1290.000000
 20
499.500000
 40
0.000000
 41
0.000000
 42
0.000000
  0
VERTEX
  8
SOLDER
 10
1260.000000
 20
499.500000
 40
0.000000
 41
0.000000
 42
0.000000
  0
VERTEX
  8
SOLDER
 10
1260.000000
 20
554.500000
 40
0.000000
 41
0.000000
 42
0.000000
  0
SEQEND
  0
POLYLINE
  8
SOLDER
 66
1
 70
1
 40
0.000000
 41
0.000000
 39
0.000000
  0
VERTEX
  8
SOLDER
 10
874.500000
 20
615.000000
 40
0.000000
 41
0.000000
 42
0.000000
  0
VERTEX
  8
SOLDER
 10
929.500000
 20
615.000000
 40
0.000000
 41
0.000000
 42
0.000000
  0
VERTEX
  8
SOLDER
 10
929.500000
 20
585.000000
 40
0.000000
 41
0.000000
 42
0.000000
  0
VERTEX
  8
SOLDER
 10
874.500000
 20
585.000000
 40
0.000000
 41
0.000000
 42
0.000000
  0
SEQEND
  0
POLYLINE
  8
SOLDER
 66
1
 70
1
 40
0.000000
 41
0.000000
 39
0.000000
  0
VERTEX
  8
SOLDER
 10
874.500000
 20
665.000000
 40
0.000000
 41
0.000000
 42
0.000000
  0
VERTEX
  8
SOLDER
 10
929.500000
 20
665.000000
 40
0.000000
 41
0.000000
 42
0.000000
  0
VERTEX
  8
SOLDER
 10
929.500000
 20
635.000000
 40
0.000000
 41
0.000000
 42
0.000000
  0
VERTEX
  8
SOLDER
 10
874.500000
 20
635.000000
 40
0.000000
 41
0.000000
 42
0.000000
  0
SEQEND
  0
POLYLINE
  8
SOLDER
 66
1
 70
1
 40
0.000000
 41
0.000000
 39
0.000000
  0
VERTEX
  8
SOLDER
 10
874.500000
 20
715.000000
 40
0.000000
 41
0.000000
 42
0.000000
  0
VERTEX
  8
SOLDER
 10
929.500000
 20
715.000000
 40
0.000000
 41
0.000000
 42
0.000000
  0
VERTEX
  8
SOLDER
 10
929.500000
 20
685.000000
 40
0.000000
 41
0.000000
 42
0.000000
  0
VERTEX
  8
SOLDER
 10
874.500000
 20
685.000000
 40
0.000000
 41
0.000000
 42
0.000000
  0
SEQEND
  0
POLYLINE
  8
SOLDER
 66
1
 70
1
 40
0.000000
 41
0.000000
 39
0.000000
  0
VERTEX
  8
SOLDER
 10
874.500000
 20
765.000000
 40
0.000000
 41
0.000000
 42
0.000000
  0
VERTEX
  8
SOLDER
 10
929.500000
 20
765.000000
 40
0.000000
 41
0.000000
 42
0.000000
  0
VERTEX
  8
SOLDER
 10
929.500000
 20
735.000000
 40
0.000000
 41
0.000000
 42
0.000000
  0
VERTEX
  8
SOLDER
 10
874.500000
 20
735.000000
 40
0.000000
 41
0.000000
 42
0.000000
  0
SEQEND
  0
POLYLINE
  8
SOLDER
 66
1
 70
1
 40
0.000000
 41
0.000000
 39
0.000000
  0
VERTEX
  8
SOLDER
 10
874.500000
 20
815.000000
 40
0.000000
 41
0.000000
 42
0.000000
  0
VERTEX
  8
SOLDER
 10
929.500000
 20
815.000000
 40
0.000000
 41
0.000000
 42
0.000000
  0
VERTEX
  8
SOLDER
 10
929.500000
 20
785.000000
 40
0.000000
 41
0.000000
 42
0.000000
  0
VERTEX
  8
SOLDER
 10
874.500000
 20
785.000000
 40
0.000000
 41
0.000000
 42
0.000000
  0
SEQEND
  0
POLYLINE
  8
SOLDER
 66
1
 70
1
 40
0.000000
 41
0.000000
 39
0.000000
  0
VERTEX
  8
SOLDER
 10
874.500000
 20
865.000000
 40
0.000000
 41
0.000000
 42
0.000000
  0
VERTEX
  8
SOLDER
 10
929.500000
 20
865.000000
 40
0.000000
 41
0.000000
 42
0.000000
  0
VERTEX
  8
SOLDER
 10
929.500000
 20
835.000000
 40
0.000000
 41
0.000000
 42
0.000000
  0
VERTEX
  8
SOLDER
 10
874.500000
 20
835.000000
 40
0.000000
 41
0.000000
 42
0.000000
  0
SEQEND
  0
POLYLINE
  8
SOLDER
 66
1
 70
1
 40
0.000000
 41
0.000000
 39
0.000000
  0
VERTEX
  8
SOLDER
 10
929.500000
 20
885.000000
 40
0.000000
 41
0.000000
 42
0.000000
  0
VERTEX
  8
SOLDER
 10
874.500000
 20
885.000000
 40
0.000000
 41
0.000000
 42
0.000000
  0
VERTEX
  8
SOLDER
 10
874.500000
 20
915.000000
 40
0.000000
 41
0.000000
 42
0.000000
  0
VERTEX
  8
SOLDER
 10
929.500000
 20
915.000000
 40
0.000000
 41
0.000000
 42
0.000000
  0
SEQEND
  0
POLYLINE
  8
SOLDER
 66
1
 70
1
 40
0.000000
 41
0.000000
 39
0.000000
  0
VERTEX
  8
SOLDER
 10
929.500000
 20
935.000000
 40
0.000000
 41
0.000000
 42
0.000000
  0
VERTEX
  8
SOLDER
 10
874.500000
 20
935.000000
 40
0.000000
 41
0.000000
 42
0.000000
  0
VERTEX
  8
SOLDER
 10
874.500000
 20
965.000000
 40
0.000000
 41
0.000000
 42
0.000000
  0
VERTEX
  8
SOLDER
 10
929.500000
 20
965.000000
 40
0.000000
 41
0.000000
 42
0.000000
  0
SEQEND
  0
POLYLINE
  8
SOLDER
 66
1
 70
1
 40
0.000000
 41
0.000000
 39
0.000000
  0
VERTEX
  8
SOLDER
 10
929.500000
 20
985.000000
 40
0.000000
 41
0.000000
 42
0.000000
  0
VERTEX
  8
SOLDER
 10
874.500000
 20
985.000000
 40
0.000000
 41
0.000000
 42
0.000000
  0
VERTEX
  8
SOLDER
 10
874.500000
 20
1015.000000
 40
0.000000
 41
0.000000
 42
0.000000
  0
VERTEX
  8
SOLDER
 10
929.500000
 20
1015.000000
 40
0.000000
 41
0.000000
 42
0.000000
  0
SEQEND
  0
POLYLINE
  8
SOLDER
 66
1
 70
1
 40
0.000000
 41
0.000000
 39
0.000000
  0
VERTEX
  8
SOLDER
 10
1320.500000
 20
615.000000
 40
0.000000
 41
0.000000
 42
0.000000
  0
VERTEX
  8
SOLDER
 10
1375.500000
 20
615.000000
 40
0.000000
 41
0.000000
 42
0.000000
  0
VERTEX
  8
SOLDER
 10
1375.500000
 20
585.000000
 40
0.000000
 41
0.000000
 42
0.000000
  0
VERTEX
  8
SOLDER
 10
1320.500000
 20
585.000000
 40
0.000000
 41
0.000000
 42
0.000000
  0
SEQEND
  0
POLYLINE
  8
SOLDER
 66
1
 70
1
 40
0.000000
 41
0.000000
 39
0.000000
  0
VERTEX
  8
SOLDER
 10
1320.500000
 20
665.000000
 40
0.000000
 41
0.000000
 42
0.000000
  0
VERTEX
  8
SOLDER
 10
1375.500000
 20
665.000000
 40
0.000000
 41
0.000000
 42
0.000000
  0
VERTEX
  8
SOLDER
 10
1375.500000
 20
635.000000
 40
0.000000
 41
0.000000
 42
0.000000
  0
VERTEX
  8
SOLDER
 10
1320.500000
 20
635.000000
 40
0.000000
 41
0.000000
 42
0.000000
  0
SEQEND
  0
POLYLINE
  8
SOLDER
 66
1
 70
1
 40
0.000000
 41
0.000000
 39
0.000000
  0
VERTEX
  8
SOLDER
 10
1320.500000
 20
715.000000
 40
0.000000
 41
0.000000
 42
0.000000
  0
VERTEX
  8
SOLDER
 10
1375.500000
 20
715.000000
 40
0.000000
 41
0.000000
 42
0.000000
  0
VERTEX
  8
SOLDER
 10
1375.500000
 20
685.000000
 40
0.000000
 41
0.000000
 42
0.000000
  0
VERTEX
  8
SOLDER
 10
1320.500000
 20
685.000000
 40
0.000000
 41
0.000000
 42
0.000000
  0
SEQEND
  0
POLYLINE
  8
SOLDER
 66
1
 70
1
 40
0.000000
 41
0.000000
 39
0.000000
  0
VERTEX
  8
SOLDER
 10
1320.500000
 20
765.000000
 40
0.000000
 41
0.000000
 42
0.000000
  0
VERTEX
  8
SOLDER
 10
1375.500000
 20
765.000000
 40
0.000000
 41
0.000000
 42
0.000000
  0
VERTEX
  8
SOLDER
 10
1375.500000
 20
735.000000
 40
0.000000
 41
0.000000
 42
0.000000
  0
VERTEX
  8
SOLDER
 10
1320.500000
 20
735.000000
 40
0.000000
 41
0.000000
 42
0.000000
  0
SEQEND
  0
POLYLINE
  8
SOLDER
 66
1
 70
1
 40
0.000000
 41
0.000000
 39
0.000000
  0
VERTEX
  8
SOLDER
 10
1320.500000
 20
815.000000
 40
0.000000
 41
0.000000
 42
0.000000
  0
VERTEX
  8
SOLDER
 10
1375.500000
 20
815.000000
 40
0.000000
 41
0.000000
 42
0.000000
  0
VERTEX
  8
SOLDER
 10
1375.500000
 20
785.000000
 40
0.000000
 41
0.000000
 42
0.000000
  0
VERTEX
  8
SOLDER
 10
1320.500000
 20
785.000000
 40
0.000000
 41
0.000000
 42
0.000000
  0
SEQEND
  0
POLYLINE
  8
SOLDER
 66
1
 70
1
 40
0.000000
 41
0.000000
 39
0.000000
  0
VERTEX
  8
SOLDER
 10
1320.500000
 20
865.000000
 40
0.000000
 41
0.000000
 42
0.000000
  0
VERTEX
  8
SOLDER
 10
1375.500000
 20
865.000000
 40
0.000000
 41
0.000000
 42
0.000000
  0
VERTEX
  8
SOLDER
 10
1375.500000
 20
835.000000
 40
0.000000
 41
0.000000
 42
0.000000
  0
VERTEX
  8
SOLDER
 10
1320.500000
 20
835.000000
 40
0.000000
 41
0.000000
 42
0.000000
  0
SEQEND
  0
POLYLINE
  8
SOLDER
 66
1
 70
1
 40
0.000000
 41
0.000000
 39
0.000000
  0
VERTEX
  8
SOLDER
 10
1320.500000
 20
915.000000
 40
0.000000
 41
0.000000
 42
0.000000
  0
VERTEX
  8
SOLDER
 10
1375.500000
 20
915.000000
 40
0.000000
 41
0.000000
 42
0.000000
  0
VERTEX
  8
SOLDER
 10
1375.500000
 20
885.000000
 40
0.000000
 41
0.000000
 42
0.000000
  0
VERTEX
  8
SOLDER
 10
1320.500000
 20
885.000000
 40
0.000000
 41
0.000000
 42
0.000000
  0
SEQEND
  0
POLYLINE
  8
SOLDER
 66
1
 70
1
 40
0.000000
 41
0.000000
 39
0.000000
  0
VERTEX
  8
SOLDER
 10
1320.500000
 20
965.000000
 40
0.000000
 41
0.000000
 42
0.000000
  0
VERTEX
  8
SOLDER
 10
1375.500000
 20
965.000000
 40
0.000000
 41
0.000000
 42
0.000000
  0
VERTEX
  8
SOLDER
 10
1375.500000
 20
935.000000
 40
0.000000
 41
0.000000
 42
0.000000
  0
VERTEX
  8
SOLDER
 10
1320.500000
 20
935.000000
 40
0.000000
 41
0.000000
 42
0.000000
  0
SEQEND
  0
POLYLINE
  8
SOLDER
 66
1
 70
1
 40
0.000000
 41
0.000000
 39
0.000000
  0
VERTEX
  8
SOLDER
 10
1320.500000
 20
1015.000000
 40
0.000000
 41
0.000000
 42
0.000000
  0
VERTEX
  8
SOLDER
 10
1375.500000
 20
1015.000000
 40
0.000000
 41
0.000000
 42
0.000000
  0
VERTEX
  8
SOLDER
 10
1375.500000
 20
985.000000
 40
0.000000
 41
0.000000
 42
0.000000
  0
VERTEX
  8
SOLDER
 10
1320.500000
 20
985.000000
 40
0.000000
 41
0.000000
 42
0.000000
  0
SEQEND
  0
POLYLINE
  8
SOLDER
 66
1
 70
1
 40
0.000000
 41
0.000000
 39
0.000000
  0
VERTEX
  8
SOLDER
 10
2158.448835
 20
2318.325826
 40
0.000000
 41
0.000000
 42
0.000000
  0
VERTEX
  8
SOLDER
 10
2105.415826
 20
2371.358835
 40
0.000000
 41
0.000000
 42
0.000000
  0
VERTEX
  8
SOLDER
 10
2140.771165
 20
2406.714174
 40
0.000000
 41
0.000000
 42
0.000000
  0
VERTEX
  8
SOLDER
 10
2193.804174
 20
2353.681165
 40
0.000000
 41
0.000000
 42
0.000000
  0
SEQEND
  0
POLYLINE
  8
SOLDER
 66
1
 70
1
 40
0.000000
 41
0.000000
 39
0.000000
  0
VERTEX
  8
SOLDER
 10
2105.411165
 20
2371.364174
 40
0.000000
 41
0.000000
 42
0.000000
  0
VERTEX
  8
SOLDER
 10
2158.444174
 20
2318.331165
 40
0.000000
 41
0.000000
 42
0.000000
  0
VERTEX
  8
SOLDER
 10
2123.088835
 20
2282.975826
 40
0.000000
 41
0.000000
 42
0.000000
  0
VERTEX
  8
SOLDER
 10
2070.055826
 20
2336.008835
 40
0.000000
 41
0.000000
 42
0.000000
  0
SEQEND
  0
POLYLINE
  8
SOLDER
 66
1
 70
1
 40
0.000000
 41
0.000000
 39
0.000000
  0
VERTEX
  8
SOLDER
 10
2087.494188
 20
2247.567600
 40
0.000000
 41
0.000000
 42
0.000000
  0
VERTEX
  8
SOLDER
 10
2034.755405
 20
2300.893211
 40
0.000000
 41
0.000000
 42
0.000000
  0
VERTEX
  8
SOLDER
 10
2070.305812
 20
2336.052400
 40
0.000000
 41
0.000000
 42
0.000000
  0
VERTEX
  8
SOLDER
 10
2123.044595
 20
2282.726789
 40
0.000000
 41
0.000000
 42
0.000000
  0
SEQEND
  0
POLYLINE
  8
SOLDER
 66
1
 70
1
 40
0.000000
 41
0.000000
 39
0.000000
  0
VERTEX
  8
SOLDER
 10
2034.945812
 20
2300.702400
 40
0.000000
 41
0.000000
 42
0.000000
  0
VERTEX
  8
SOLDER
 10
2087.684595
 20
2247.376789
 40
0.000000
 41
0.000000
 42
0.000000
  0
VERTEX
  8
SOLDER
 10
2052.134188
 20
2212.217600
 40
0.000000
 41
0.000000
 42
0.000000
  0
VERTEX
  8
SOLDER
 10
1999.395405
 20
2265.543211
 40
0.000000
 41
0.000000
 42
0.000000
  0
SEQEND
  0
POLYLINE
  8
SOLDER
 66
1
 70
1
 40
0.000000
 41
0.000000
 39
0.000000
  0
VERTEX
  8
SOLDER
 10
1999.595812
 20
2265.342400
 40
0.000000
 41
0.000000
 42
0.000000
  0
VERTEX
  8
SOLDER
 10
2052.334595
 20
2212.016789
 40
0.000000
 41
0.000000
 42
0.000000
  0
VERTEX
  8
SOLDER
 10
2016.784188
 20
2176.857600
 40
0.000000
 41
0.000000
 42
0.000000
  0
VERTEX
  8
SOLDER
 10
1964.045405
 20
2230.183211
 40
0.000000
 41
0.000000
 42
0.000000
  0
SEQEND
  0
POLYLINE
  8
SOLDER
 66
1
 70
1
 40
0.000000
 41
0.000000
 39
0.000000
  0
VERTEX
  8
SOLDER
 10
1964.235812
 20
2229.992400
 40
0.000000
 41
0.000000
 42
0.000000
  0
VERTEX
  8
SOLDER
 10
2016.974595
 20
2176.666789
 40
0.000000
 41
0.000000
 42
0.000000
  0
VERTEX
  8
SOLDER
 10
1981.424188
 20
2141.507600
 40
0.000000
 41
0.000000
 42
0.000000
  0
VERTEX
  8
SOLDER
 10
1928.685405
 20
2194.833211
 40
0.000000
 41
0.000000
 42
0.000000
  0
SEQEND
  0
POLYLINE
  8
SOLDER
 66
1
 70
1
 40
0.000000
 41
0.000000
 39
0.000000
  0
VERTEX
  8
SOLDER
 10
1928.885812
 20
2194.632400
 40
0.000000
 41
0.000000
 42
0.000000
  0
VERTEX
  8
SOLDER
 10
1981.624595
 20
2141.306789
 40
0.000000
 41
0.000000
 42
0.000000
  0
VERTEX
  8
SOLDER
 10
1946.074188
 20
2106.147600
 40
0.000000
 41
0.000000
 42
0.000000
  0
VERTEX
  8
SOLDER
 10
1893.335405
 20
2159.473211
 40
0.000000
 41
0.000000
 42
0.000000
  0
SEQEND
  0
POLYLINE
  8
SOLDER
 66
1
 70
1
 40
0.000000
 41
0.000000
 39
0.000000
  0
VERTEX
  8
SOLDER
 10
1641.551165
 20
2481.674174
 40
0.000000
 41
0.000000
 42
0.000000
  0
VERTEX
  8
SOLDER
 10
1694.584174
 20
2428.641165
 40
0.000000
 41
0.000000
 42
0.000000
  0
VERTEX
  8
SOLDER
 10
1659.228835
 20
2393.285826
 40
0.000000
 41
0.000000
 42
0.000000
  0
VERTEX
  8
SOLDER
 10
1606.195826
 20
2446.318835
 40
0.000000
 41
0.000000
 42
0.000000
  0
SEQEND
  0
POLYLINE
  8
SOLDER
 66
1
 70
1
 40
0.000000
 41
0.000000
 39
0.000000
  0
VERTEX
  8
SOLDER
 10
1694.588835
 20
2428.635826
 40
0.000000
 41
0.000000
 42
0.000000
  0
VERTEX
  8
SOLDER
 10
1641.555826
 20
2481.668835
 40
0.000000
 41
0.000000
 42
0.000000
  0
VERTEX
  8
SOLDER
 10
1676.911165
 20
2517.024174
 40
0.000000
 41
0.000000
 42
0.000000
  0
VERTEX
  8
SOLDER
 10
1729.944174
 20
2463.991165
 40
0.000000
 41
0.000000
 42
0.000000
  0
SEQEND
  0
POLYLINE
  8
SOLDER
 66
1
 70
1
 40
0.000000
 41
0.000000
 39
0.000000
  0
VERTEX
  8
SOLDER
 10
1729.938835
 20
2463.995826
 40
0.000000
 41
0.000000
 42
0.000000
  0
VERTEX
  8
SOLDER
 10
1676.905826
 20
2517.028835
 40
0.000000
 41
0.000000
 42
0.000000
  0
VERTEX
  8
SOLDER
 10
1712.261165
 20
2552.384174
 40
0.000000
 41
0.000000
 42
0.000000
  0
VERTEX
  8
SOLDER
 10
1765.294174
 20
2499.351165
 40
0.000000
 41
0.000000
 42
0.000000
  0
SEQEND
  0
POLYLINE
  8
SOLDER
 66
1
 70
1
 40
0.000000
 41
0.000000
 39
0.000000
  0
VERTEX
  8
SOLDER
 10
1765.298835
 20
2499.345826
 40
0.000000
 41
0.000000
 42
0.000000
  0
VERTEX
  8
SOLDER
 10
1712.265826
 20
2552.378835
 40
0.000000
 41
0.000000
 42
0.000000
  0
VERTEX
  8
SOLDER
 10
1747.621165
 20
2587.734174
 40
0.000000
 41
0.000000
 42
0.000000
  0
VERTEX
  8
SOLDER
 10
1800.654174
 20
2534.701165
 40
0.000000
 41
0.000000
 42
0.000000
  0
SEQEND
  0
POLYLINE
  8
SOLDER
 66
1
 70
1
 40
0.000000
 41
0.000000
 39
0.000000
  0
VERTEX
  8
SOLDER
 10
1800.648835
 20
2534.705826
 40
0.000000
 41
0.000000
 42
0.000000
  0
VERTEX
  8
SOLDER
 10
1747.615826
 20
2587.738835
 40
0.000000
 41
0.000000
 42
0.000000
  0
VERTEX
  8
SOLDER
 10
1782.971165
 20
2623.094174
 40
0.000000
 41
0.000000
 42
0.000000
  0
VERTEX
  8
SOLDER
 10
1836.004174
 20
2570.061165
 40
0.000000
 41
0.000000
 42
0.000000
  0
SEQEND
  0
POLYLINE
  8
SOLDER
 66
1
 70
1
 40
0.000000
 41
0.000000
 39
0.000000
  0
VERTEX
  8
SOLDER
 10
1836.008835
 20
2570.055826
 40
0.000000
 41
0.000000
 42
0.000000
  0
VERTEX
  8
SOLDER
 10
1782.975826
 20
2623.088835
 40
0.000000
 41
0.000000
 42
0.000000
  0
VERTEX
  8
SOLDER
 10
1818.331165
 20
2658.444174
 40
0.000000
 41
0.000000
 42
0.000000
  0
VERTEX
  8
SOLDER
 10
1871.364174
 20
2605.411165
 40
0.000000
 41
0.000000
 42
0.000000
  0
SEQEND
  0
POLYLINE
  8
SOLDER
 66
1
 70
1
 40
0.000000
 41
0.000000
 39
0.000000
  0
VERTEX
  8
SOLDER
 10
1871.358835
 20
2605.415826
 40
0.000000
 41
0.000000
 42
0.000000
  0
VERTEX
  8
SOLDER
 10
1818.325826
 20
2658.448835
 40
0.000000
 41
0.000000
 42
0.000000
  0
VERTEX
  8
SOLDER
 10
1853.681165
 20
2693.804174
 40
0.000000
 41
0.000000
 42
0.000000
  0
VERTEX
  8
SOLDER
 10
1906.714174
 20
2640.771165
 40
0.000000
 41
0.000000
 42
0.000000
  0
SEQEND
  0
POLYLINE
  8
SOLDER
 66
1
 70
1
 40
0.000000
 41
0.000000
 39
0.000000
  0
VERTEX
  8
SOLDER
 10
1906.714174
 20
2159.228835
 40
0.000000
 41
0.000000
 42
0.000000
  0
VERTEX
  8
SOLDER
 10
1853.681165
 20
2106.195826
 40
0.000000
 41
0.000000
 42
0.000000
  0
VERTEX
  8
SOLDER
 10
1818.325826
 20
2141.551165
 40
0.000000
 41
0.000000
 42
0.000000
  0
VERTEX
  8
SOLDER
 10
1871.358835
 20
2194.584174
 40
0.000000
 41
0.000000
 42
0.000000
  0
SEQEND
  0
POLYLINE
  8
SOLDER
 66
1
 70
1
 40
0.000000
 41
0.000000
 39
0.000000
  0
VERTEX
  8
SOLDER
 10
1782.975826
 20
2176.911165
 40
0.000000
 41
0.000000
 42
0.000000
  0
VERTEX
  8
SOLDER
 10
1836.008835
 20
2229.944174
 40
0.000000
 41
0.000000
 42
0.000000
  0
VERTEX
  8
SOLDER
 10
1871.364174
 20
2194.588835
 40
0.000000
 41
0.000000
 42
0.000000
  0
VERTEX
  8
SOLDER
 10
1818.331165
 20
2141.555826
 40
0.000000
 41
0.000000
 42
0.000000
  0
SEQEND
  0
POLYLINE
  8
SOLDER
 66
1
 70
1
 40
0.000000
 41
0.000000
 39
0.000000
  0
VERTEX
  8
SOLDER
 10
1836.052400
 20
2229.694188
 40
0.000000
 41
0.000000
 42
0.000000
  0
VERTEX
  8
SOLDER
 10
1782.726789
 20
2176.955405
 40
0.000000
 41
0.000000
 42
0.000000
  0
VERTEX
  8
SOLDER
 10
1747.567600
 20
2212.505812
 40
0.000000
 41
0.000000
 42
0.000000
  0
VERTEX
  8
SOLDER
 10
1800.893211
 20
2265.244595
 40
0.000000
 41
0.000000
 42
0.000000
  0
SEQEND
  0
POLYLINE
  8
SOLDER
 66
1
 70
1
 40
0.000000
 41
0.000000
 39
0.000000
  0
VERTEX
  8
SOLDER
 10
1765.294174
 20
2300.648835
 40
0.000000
 41
0.000000
 42
0.000000
  0
VERTEX
  8
SOLDER
 10
1712.261165
 20
2247.615826
 40
0.000000
 41
0.000000
 42
0.000000
  0
VERTEX
  8
SOLDER
 10
1676.905826
 20
2282.971165
 40
0.000000
 41
0.000000
 42
0.000000
  0
VERTEX
  8
SOLDER
 10
1729.938835
 20
2336.004174
 40
0.000000
 41
0.000000
 42
0.000000
  0
SEQEND
  0
POLYLINE
  8
SOLDER
 66
1
 70
1
 40
0.000000
 41
0.000000
 39
0.000000
  0
VERTEX
  8
SOLDER
 10
1729.944174
 20
2336.008835
 40
0.000000
 41
0.000000
 42
0.000000
  0
VERTEX
  8
SOLDER
 10
1676.911165
 20
2282.975826
 40
0.000000
 41
0.000000
 42
0.000000
  0
VERTEX
  8
SOLDER
 10
1641.555826
 20
2318.331165
 40
0.000000
 41
0.000000
 42
0.000000
  0
VERTEX
  8
SOLDER
 10
1694.588835
 20
2371.364174
 40
0.000000
 41
0.000000
 42
0.000000
  0
SEQEND
  0
POLYLINE
  8
SOLDER
 66
1
 70
1
 40
0.000000
 41
0.000000
 39
0.000000
  0
VERTEX
  8
SOLDER
 10
1694.584174
 20
2371.358835
 40
0.000000
 41
0.000000
 42
0.000000
  0
VERTEX
  8
SOLDER
 10
1641.551165
 20
2318.325826
 40
0.000000
 41
0.000000
 42
0.000000
  0
VERTEX
  8
SOLDER
 10
1606.195826
 20
2353.681165
 40
0.000000
 41
0.000000
 42
0.000000
  0
VERTEX
  8
SOLDER
 10
1659.228835
 20
2406.714174
 40
0.000000
 41
0.000000
 42
0.000000
  0
SEQEND
  0
POLYLINE
  8
SOLDER
 66
1
 70
1
 40
0.000000
 41
0.000000
 39
0.000000
  0
VERTEX
  8
SOLDER
 10
1828.707059
 20
2292.906271
 40
0.000000
 41
0.000000
 42
0.000000
  0
VERTEX
  8
SOLDER
 10
1747.652130
 20
2212.743321
 40
0.000000
 41
0.000000
 42
0.000000
  0
VERTEX
  8
SOLDER
 10
1712.492941
 20
2248.293729
 40
0.000000
 41
0.000000
 42
0.000000
  0
VERTEX
  8
SOLDER
 10
1793.547870
 20
2328.456679
 40
0.000000
 41
0.000000
 42
0.000000
  0
SEQEND
  0
POLYLINE
  8
SOLDER
 66
1
 70
1
 40
0.000000
 41
0.000000
 39
0.000000
  0
VERTEX
  8
SOLDER
 10
2105.367600
 20
2428.885812
 40
0.000000
 41
0.000000
 42
0.000000
  0
VERTEX
  8
SOLDER
 10
2158.693211
 20
2481.624595
 40
0.000000
 41
0.000000
 42
0.000000
  0
VERTEX
  8
SOLDER
 10
2193.852400
 20
2446.074188
 40
0.000000
 41
0.000000
 42
0.000000
  0
VERTEX
  8
SOLDER
 10
2140.526789
 20
2393.335405
 40
0.000000
 41
0.000000
 42
0.000000
  0
SEQEND
  0
POLYLINE
  8
SOLDER
 66
1
 70
1
 40
0.000000
 41
0.000000
 39
0.000000
  0
VERTEX
  8
SOLDER
 10
2070.007600
 20
2464.235812
 40
0.000000
 41
0.000000
 42
0.000000
  0
VERTEX
  8
SOLDER
 10
2123.333211
 20
2516.974595
 40
0.000000
 41
0.000000
 42
0.000000
  0
VERTEX
  8
SOLDER
 10
2158.492400
 20
2481.424188
 40
0.000000
 41
0.000000
 42
0.000000
  0
VERTEX
  8
SOLDER
 10
2105.166789
 20
2428.685405
 40
0.000000
 41
0.000000
 42
0.000000
  0
SEQEND
  0
POLYLINE
  8
SOLDER
 66
1
 70
1
 40
0.000000
 41
0.000000
 39
0.000000
  0
VERTEX
  8
SOLDER
 10
2123.142400
 20
2516.784188
 40
0.000000
 41
0.000000
 42
0.000000
  0
VERTEX
  8
SOLDER
 10
2069.816789
 20
2464.045405
 40
0.000000
 41
0.000000
 42
0.000000
  0
VERTEX
  8
SOLDER
 10
2034.657600
 20
2499.595812
 40
0.000000
 41
0.000000
 42
0.000000
  0
VERTEX
  8
SOLDER
 10
2087.983211
 20
2552.334595
 40
0.000000
 41
0.000000
 42
0.000000
  0
SEQEND
  0
POLYLINE
  8
SOLDER
 66
1
 70
1
 40
0.000000
 41
0.000000
 39
0.000000
  0
VERTEX
  8
SOLDER
 10
2087.734174
 20
2552.378835
 40
0.000000
 41
0.000000
 42
0.000000
  0
VERTEX
  8
SOLDER
 10
2034.701165
 20
2499.345826
 40
0.000000
 41
0.000000
 42
0.000000
  0
VERTEX
  8
SOLDER
 10
1999.345826
 20
2534.701165
 40
0.000000
 41
0.000000
 42
0.000000
  0
VERTEX
  8
SOLDER
 10
2052.378835
 20
2587.734174
 40
0.000000
 41
0.000000
 42
0.000000
  0
SEQEND
  0
POLYLINE
  8
SOLDER
 66
1
 70
1
 40
0.000000
 41
0.000000
 39
0.000000
  0
VERTEX
  8
SOLDER
 10
2052.384174
 20
2587.738835
 40
0.000000
 41
0.000000
 42
0.000000
  0
VERTEX
  8
SOLDER
 10
1999.351165
 20
2534.705826
 40
0.000000
 41
0.000000
 42
0.000000
  0
VERTEX
  8
SOLDER
 10
1963.995826
 20
2570.061165
 40
0.000000
 41
0.000000
 42
0.000000
  0
VERTEX
  8
SOLDER
 10
2017.028835
 20
2623.094174
 40
0.000000
 41
0.000000
 42
0.000000
  0
SEQEND
  0
POLYLINE
  8
SOLDER
 66
1
 70
1
 40
0.000000
 41
0.000000
 39
0.000000
  0
VERTEX
  8
SOLDER
 10
1928.587600
 20
2605.655812
 40
0.000000
 41
0.000000
 42
0.000000
  0
VERTEX
  8
SOLDER
 10
1981.913211
 20
2658.394595
 40
0.000000
 41
0.000000
 42
0.000000
  0
VERTEX
  8
SOLDER
 10
2017.072400
 20
2622.844188
 40
0.000000
 41
0.000000
 42
0.000000
  0
VERTEX
  8
SOLDER
 10
1963.746789
 20
2570.105405
 40
0.000000
 41
0.000000
 42
0.000000
  0
SEQEND
  0
POLYLINE
  8
SOLDER
 66
1
 70
1
 40
0.000000
 41
0.000000
 39
0.000000
  0
VERTEX
  8
SOLDER
 10
1893.237600
 20
2641.015812
 40
0.000000
 41
0.000000
 42
0.000000
  0
VERTEX
  8
SOLDER
 10
1946.563211
 20
2693.754595
 40
0.000000
 41
0.000000
 42
0.000000
  0
VERTEX
  8
SOLDER
 10
1981.722400
 20
2658.204188
 40
0.000000
 41
0.000000
 42
0.000000
  0
VERTEX
  8
SOLDER
 10
1928.396789
 20
2605.465405
 40
0.000000
 41
0.000000
 42
0.000000
  0
SEQEND
  0
POLYLINE
  8
SOLDER
 66
1
 70
1
 40
0.000000
 41
0.000000
 39
0.000000
  0
VERTEX
  8
SOLDER
 10
912.500000
 20
1937.500000
 40
0.000000
 41
0.000000
 42
0.000000
  0
VERTEX
  8
SOLDER
 10
912.500000
 20
2012.500000
 40
0.000000
 41
0.000000
 42
0.000000
  0
VERTEX
  8
SOLDER
 10
987.500000
 20
2012.500000
 40
0.000000
 41
0.000000
 42
0.000000
  0
VERTEX
  8
SOLDER
 10
987.500000
 20
1937.500000
 40
0.000000
 41
0.000000
 42
0.000000
  0
SEQEND
  0
CIRCLE
  8
SOLDER
 10
950.000000
 20
1375.000000
 40
37.500000
  0
CIRCLE
  8
SOLDER
 10
1250.000000
 20
1375.000000
 40
37.500000
  0
CIRCLE
  8
SOLDER
 10
1250.000000
 20
1975.000000
 40
37.500000
  0
CIRCLE
  8
SOLDER
 10
2350.000000
 20
350.000000
 40
37.500000
  0
CIRCLE
  8
SOLDER
 10
2750.000000
 20
350.000000
 40
37.500000
  0
CIRCLE
  8
SOLDER
 10
350.000000
 20
350.000000
 40
37.500000
  0
CIRCLE
  8
SOLDER
 10
750.000000
 20
350.000000
 40
37.500000
  0
CIRCLE
  8
SOLDER
 10
2350.000000
 20
2775.000000
 40
37.500000
  0
CIRCLE
  8
SOLDER
 10
2350.000000
 20
2375.000000
 40
37.500000
  0
POLYLINE
  8
SOLDER
 66
1
 70
1
 40
0.000000
 41
0.000000
 39
0.000000
  0
VERTEX
  8
SOLDER
 10
975.000000
 20
3665.000000
 40
0.000000
 41
0.000000
 42
0.000000
  0
VERTEX
  8
SOLDER
 10
975.000000
 20
3635.000000
 40
0.000000
 41
0.000000
 42
0.000000
  0
VERTEX
  8
SOLDER
 10
920.000000
 20
3635.000000
 40
0.000000
 41
0.000000
 42
0.000000
  0
VERTEX
  8
SOLDER
 10
920.000000
 20
3665.000000
 40
0.000000
 41
0.000000
 42
0.000000
  0
SEQEND
  0
POLYLINE
  8
SOLDER
 66
1
 70
1
 40
0.000000
 41
0.000000
 39
0.000000
  0
VERTEX
  8
SOLDER
 10
975.000000
 20
3615.000000
 40
0.000000
 41
0.000000
 42
0.000000
  0
VERTEX
  8
SOLDER
 10
975.000000
 20
3585.000000
 40
0.000000
 41
0.000000
 42
0.000000
  0
VERTEX
  8
SOLDER
 10
920.000000
 20
3585.000000
 40
0.000000
 41
0.000000
 42
0.000000
  0
VERTEX
  8
SOLDER
 10
920.000000
 20
3615.000000
 40
0.000000
 41
0.000000
 42
0.000000
  0
SEQEND
  0
POLYLINE
  8
SOLDER
 66
1
 70
1
 40
0.000000
 41
0.000000
 39
0.000000
  0
VERTEX
  8
SOLDER
 10
975.000000
 20
3565.000000
 40
0.000000
 41
0.000000
 42
0.000000
  0
VERTEX
  8
SOLDER
 10
975.000000
 20
3535.000000
 40
0.000000
 41
0.000000
 42
0.000000
  0
VERTEX
  8
SOLDER
 10
920.000000
 20
3535.000000
 40
0.000000
 41
0.000000
 42
0.000000
  0
VERTEX
  8
SOLDER
 10
920.000000
 20
3565.000000
 40
0.000000
 41
0.000000
 42
0.000000
  0
SEQEND
  0
POLYLINE
  8
SOLDER
 66
1
 70
1
 40
0.000000
 41
0.000000
 39
0.000000
  0
VERTEX
  8
SOLDER
 10
975.000000
 20
3515.000000
 40
0.000000
 41
0.000000
 42
0.000000
  0
VERTEX
  8
SOLDER
 10
975.000000
 20
3485.000000
 40
0.000000
 41
0.000000
 42
0.000000
  0
VERTEX
  8
SOLDER
 10
920.000000
 20
3485.000000
 40
0.000000
 41
0.000000
 42
0.000000
  0
VERTEX
  8
SOLDER
 10
920.000000
 20
3515.000000
 40
0.000000
 41
0.000000
 42
0.000000
  0
SEQEND
  0
POLYLINE
  8
SOLDER
 66
1
 70
1
 40
0.000000
 41
0.000000
 39
0.000000
  0
VERTEX
  8
SOLDER
 10
975.000000
 20
3465.000000
 40
0.000000
 41
0.000000
 42
0.000000
  0
VERTEX
  8
SOLDER
 10
975.000000
 20
3435.000000
 40
0.000000
 41
0.000000
 42
0.000000
  0
VERTEX
  8
SOLDER
 10
920.000000
 20
3435.000000
 40
0.000000
 41
0.000000
 42
0.000000
  0
VERTEX
  8
SOLDER
 10
920.000000
 20
3465.000000
 40
0.000000
 41
0.000000
 42
0.000000
  0
SEQEND
  0
POLYLINE
  8
SOLDER
 66
1
 70
1
 40
0.000000
 41
0.000000
 39
0.000000
  0
VERTEX
  8
SOLDER
 10
975.000000
 20
3415.000000
 40
0.000000
 41
0.000000
 42
0.000000
  0
VERTEX
  8
SOLDER
 10
975.000000
 20
3385.000000
 40
0.000000
 41
0.000000
 42
0.000000
  0
VERTEX
  8
SOLDER
 10
920.000000
 20
3385.000000
 40
0.000000
 41
0.000000
 42
0.000000
  0
VERTEX
  8
SOLDER
 10
920.000000
 20
3415.000000
 40
0.000000
 41
0.000000
 42
0.000000
  0
SEQEND
  0
POLYLINE
  8
SOLDER
 66
1
 70
1
 40
0.000000
 41
0.000000
 39
0.000000
  0
VERTEX
  8
SOLDER
 10
975.000000
 20
3365.000000
 40
0.000000
 41
0.000000
 42
0.000000
  0
VERTEX
  8
SOLDER
 10
975.000000
 20
3335.000000
 40
0.000000
 41
0.000000
 42
0.000000
  0
VERTEX
  8
SOLDER
 10
920.000000
 20
3335.000000
 40
0.000000
 41
0.000000
 42
0.000000
  0
VERTEX
  8
SOLDER
 10
920.000000
 20
3365.000000
 40
0.000000
 41
0.000000
 42
0.000000
  0
SEQEND
  0
POLYLINE
  8
SOLDER
 66
1
 70
1
 40
0.000000
 41
0.000000
 39
0.000000
  0
VERTEX
  8
SOLDER
 10
780.000000
 20
3665.000000
 40
0.000000
 41
0.000000
 42
0.000000
  0
VERTEX
  8
SOLDER
 10
780.000000
 20
3635.000000
 40
0.000000
 41
0.000000
 42
0.000000
  0
VERTEX
  8
SOLDER
 10
725.000000
 20
3635.000000
 40
0.000000
 41
0.000000
 42
0.000000
  0
VERTEX
  8
SOLDER
 10
725.000000
 20
3665.000000
 40
0.000000
 41
0.000000
 42
0.000000
  0
SEQEND
  0
POLYLINE
  8
SOLDER
 66
1
 70
1
 40
0.000000
 41
0.000000
 39
0.000000
  0
VERTEX
  8
SOLDER
 10
780.000000
 20
3615.000000
 40
0.000000
 41
0.000000
 42
0.000000
  0
VERTEX
  8
SOLDER
 10
780.000000
 20
3585.000000
 40
0.000000
 41
0.000000
 42
0.000000
  0
VERTEX
  8
SOLDER
 10
725.000000
 20
3585.000000
 40
0.000000
 41
0.000000
 42
0.000000
  0
VERTEX
  8
SOLDER
 10
725.000000
 20
3615.000000
 40
0.000000
 41
0.000000
 42
0.000000
  0
SEQEND
  0
POLYLINE
  8
SOLDER
 66
1
 70
1
 40
0.000000
 41
0.000000
 39
0.000000
  0
VERTEX
  8
SOLDER
 10
780.000000
 20
3515.000000
 40
0.000000
 41
0.000000
 42
0.000000
  0
VERTEX
  8
SOLDER
 10
780.000000
 20
3485.000000
 40
0.000000
 41
0.000000
 42
0.000000
  0
VERTEX
  8
SOLDER
 10
725.000000
 20
3485.000000
 40
0.000000
 41
0.000000
 42
0.000000
  0
VERTEX
  8
SOLDER
 10
725.000000
 20
3515.000000
 40
0.000000
 41
0.000000
 42
0.000000
  0
SEQEND
  0
POLYLINE
  8
SOLDER
 66
1
 70
1
 40
0.000000
 41
0.000000
 39
0.000000
  0
VERTEX
  8
SOLDER
 10
780.000000
 20
3565.000000
 40
0.000000
 41
0.000000
 42
0.000000
  0
VERTEX
  8
SOLDER
 10
780.000000
 20
3535.000000
 40
0.000000
 41
0.000000
 42
0.000000
  0
VERTEX
  8
SOLDER
 10
725.000000
 20
3535.000000
 40
0.000000
 41
0.000000
 42
0.000000
  0
VERTEX
  8
SOLDER
 10
725.000000
 20
3565.000000
 40
0.000000
 41
0.000000
 42
0.000000
  0
SEQEND
  0
POLYLINE
  8
SOLDER
 66
1
 70
1
 40
0.000000
 41
0.000000
 39
0.000000
  0
VERTEX
  8
SOLDER
 10
780.000000
 20
3465.000000
 40
0.000000
 41
0.000000
 42
0.000000
  0
VERTEX
  8
SOLDER
 10
780.000000
 20
3435.000000
 40
0.000000
 41
0.000000
 42
0.000000
  0
VERTEX
  8
SOLDER
 10
725.000000
 20
3435.000000
 40
0.000000
 41
0.000000
 42
0.000000
  0
VERTEX
  8
SOLDER
 10
725.000000
 20
3465.000000
 40
0.000000
 41
0.000000
 42
0.000000
  0
SEQEND
  0
POLYLINE
  8
SOLDER
 66
1
 70
1
 40
0.000000
 41
0.000000
 39
0.000000
  0
VERTEX
  8
SOLDER
 10
780.000000
 20
3365.000000
 40
0.000000
 41
0.000000
 42
0.000000
  0
VERTEX
  8
SOLDER
 10
780.000000
 20
3335.000000
 40
0.000000
 41
0.000000
 42
0.000000
  0
VERTEX
  8
SOLDER
 10
725.000000
 20
3335.000000
 40
0.000000
 41
0.000000
 42
0.000000
  0
VERTEX
  8
SOLDER
 10
725.000000
 20
3365.000000
 40
0.000000
 41
0.000000
 42
0.000000
  0
SEQEND
  0
POLYLINE
  8
SOLDER
 66
1
 70
1
 40
0.000000
 41
0.000000
 39
0.000000
  0
VERTEX
  8
SOLDER
 10
780.000000
 20
3415.000000
 40
0.000000
 41
0.000000
 42
0.000000
  0
VERTEX
  8
SOLDER
 10
780.000000
 20
3385.000000
 40
0.000000
 41
0.000000
 42
0.000000
  0
VERTEX
  8
SOLDER
 10
725.000000
 20
3385.000000
 40
0.000000
 41
0.000000
 42
0.000000
  0
VERTEX
  8
SOLDER
 10
725.000000
 20
3415.000000
 40
0.000000
 41
0.000000
 42
0.000000
  0
SEQEND
  0
POLYLINE
  8
SOLDER
 66
1
 70
1
 40
0.000000
 41
0.000000
 39
0.000000
  0
VERTEX
  8
SOLDER
 10
2585.000000
 20
3385.000000
 40
0.000000
 41
0.000000
 42
0.000000
  0
VERTEX
  8
SOLDER
 10
2585.000000
 20
3415.000000
 40
0.000000
 41
0.000000
 42
0.000000
  0
VERTEX
  8
SOLDER
 10
2640.000000
 20
3415.000000
 40
0.000000
 41
0.000000
 42
0.000000
  0
VERTEX
  8
SOLDER
 10
2640.000000
 20
3385.000000
 40
0.000000
 41
0.000000
 42
0.000000
  0
SEQEND
  0
POLYLINE
  8
SOLDER
 66
1
 70
1
 40
0.000000
 41
0.000000
 39
0.000000
  0
VERTEX
  8
SOLDER
 10
2585.000000
 20
3435.000000
 40
0.000000
 41
0.000000
 42
0.000000
  0
VERTEX
  8
SOLDER
 10
2585.000000
 20
3465.000000
 40
0.000000
 41
0.000000
 42
0.000000
  0
VERTEX
  8
SOLDER
 10
2640.000000
 20
3465.000000
 40
0.000000
 41
0.000000
 42
0.000000
  0
VERTEX
  8
SOLDER
 10
2640.000000
 20
3435.000000
 40
0.000000
 41
0.000000
 42
0.000000
  0
SEQEND
  0
POLYLINE
  8
SOLDER
 66
1
 70
1
 40
0.000000
 41
0.000000
 39
0.000000
  0
VERTEX
  8
SOLDER
 10
2585.000000
 20
3485.000000
 40
0.000000
 41
0.000000
 42
0.000000
  0
VERTEX
  8
SOLDER
 10
2585.000000
 20
3515.000000
 40
0.000000
 41
0.000000
 42
0.000000
  0
VERTEX
  8
SOLDER
 10
2640.000000
 20
3515.000000
 40
0.000000
 41
0.000000
 42
0.000000
  0
VERTEX
  8
SOLDER
 10
2640.000000
 20
3485.000000
 40
0.000000
 41
0.000000
 42
0.000000
  0
SEQEND
  0
POLYLINE
  8
SOLDER
 66
1
 70
1
 40
0.000000
 41
0.000000
 39
0.000000
  0
VERTEX
  8
SOLDER
 10
2585.000000
 20
3535.000000
 40
0.000000
 41
0.000000
 42
0.000000
  0
VERTEX
  8
SOLDER
 10
2585.000000
 20
3565.000000
 40
0.000000
 41
0.000000
 42
0.000000
  0
VERTEX
  8
SOLDER
 10
2640.000000
 20
3565.000000
 40
0.000000
 41
0.000000
 42
0.000000
  0
VERTEX
  8
SOLDER
 10
2640.000000
 20
3535.000000
 40
0.000000
 41
0.000000
 42
0.000000
  0
SEQEND
  0
POLYLINE
  8
SOLDER
 66
1
 70
1
 40
0.000000
 41
0.000000
 39
0.000000
  0
VERTEX
  8
SOLDER
 10
2585.000000
 20
3585.000000
 40
0.000000
 41
0.000000
 42
0.000000
  0
VERTEX
  8
SOLDER
 10
2585.000000
 20
3615.000000
 40
0.000000
 41
0.000000
 42
0.000000
  0
VERTEX
  8
SOLDER
 10
2640.000000
 20
3615.000000
 40
0.000000
 41
0.000000
 42
0.000000
  0
VERTEX
  8
SOLDER
 10
2640.000000
 20
3585.000000
 40
0.000000
 41
0.000000
 42
0.000000
  0
SEQEND
  0
POLYLINE
  8
SOLDER
 66
1
 70
1
 40
0.000000
 41
0.000000
 39
0.000000
  0
VERTEX
  8
SOLDER
 10
2585.000000
 20
3635.000000
 40
0.000000
 41
0.000000
 42
0.000000
  0
VERTEX
  8
SOLDER
 10
2585.000000
 20
3665.000000
 40
0.000000
 41
0.000000
 42
0.000000
  0
VERTEX
  8
SOLDER
 10
2640.000000
 20
3665.000000
 40
0.000000
 41
0.000000
 42
0.000000
  0
VERTEX
  8
SOLDER
 10
2640.000000
 20
3635.000000
 40
0.000000
 41
0.000000
 42
0.000000
  0
SEQEND
  0
POLYLINE
  8
SOLDER
 66
1
 70
1
 40
0.000000
 41
0.000000
 39
0.000000
  0
VERTEX
  8
SOLDER
 10
2585.000000
 20
3685.000000
 40
0.000000
 41
0.000000
 42
0.000000
  0
VERTEX
  8
SOLDER
 10
2585.000000
 20
3715.000000
 40
0.000000
 41
0.000000
 42
0.000000
  0
VERTEX
  8
SOLDER
 10
2640.000000
 20
3715.000000
 40
0.000000
 41
0.000000
 42
0.000000
  0
VERTEX
  8
SOLDER
 10
2640.000000
 20
3685.000000
 40
0.000000
 41
0.000000
 42
0.000000
  0
SEQEND
  0
POLYLINE
  8
SOLDER
 66
1
 70
1
 40
0.000000
 41
0.000000
 39
0.000000
  0
VERTEX
  8
SOLDER
 10
2780.000000
 20
3385.000000
 40
0.000000
 41
0.000000
 42
0.000000
  0
VERTEX
  8
SOLDER
 10
2780.000000
 20
3415.000000
 40
0.000000
 41
0.000000
 42
0.000000
  0
VERTEX
  8
SOLDER
 10
2835.000000
 20
3415.000000
 40
0.000000
 41
0.000000
 42
0.000000
  0
VERTEX
  8
SOLDER
 10
2835.000000
 20
3385.000000
 40
0.000000
 41
0.000000
 42
0.000000
  0
SEQEND
  0
POLYLINE
  8
SOLDER
 66
1
 70
1
 40
0.000000
 41
0.000000
 39
0.000000
  0
VERTEX
  8
SOLDER
 10
2780.000000
 20
3435.000000
 40
0.000000
 41
0.000000
 42
0.000000
  0
VERTEX
  8
SOLDER
 10
2780.000000
 20
3465.000000
 40
0.000000
 41
0.000000
 42
0.000000
  0
VERTEX
  8
SOLDER
 10
2835.000000
 20
3465.000000
 40
0.000000
 41
0.000000
 42
0.000000
  0
VERTEX
  8
SOLDER
 10
2835.000000
 20
3435.000000
 40
0.000000
 41
0.000000
 42
0.000000
  0
SEQEND
  0
POLYLINE
  8
SOLDER
 66
1
 70
1
 40
0.000000
 41
0.000000
 39
0.000000
  0
VERTEX
  8
SOLDER
 10
2780.000000
 20
3535.000000
 40
0.000000
 41
0.000000
 42
0.000000
  0
VERTEX
  8
SOLDER
 10
2780.000000
 20
3565.000000
 40
0.000000
 41
0.000000
 42
0.000000
  0
VERTEX
  8
SOLDER
 10
2835.000000
 20
3565.000000
 40
0.000000
 41
0.000000
 42
0.000000
  0
VERTEX
  8
SOLDER
 10
2835.000000
 20
3535.000000
 40
0.000000
 41
0.000000
 42
0.000000
  0
SEQEND
  0
POLYLINE
  8
SOLDER
 66
1
 70
1
 40
0.000000
 41
0.000000
 39
0.000000
  0
VERTEX
  8
SOLDER
 10
2780.000000
 20
3485.000000
 40
0.000000
 41
0.000000
 42
0.000000
  0
VERTEX
  8
SOLDER
 10
2780.000000
 20
3515.000000
 40
0.000000
 41
0.000000
 42
0.000000
  0
VERTEX
  8
SOLDER
 10
2835.000000
 20
3515.000000
 40
0.000000
 41
0.000000
 42
0.000000
  0
VERTEX
  8
SOLDER
 10
2835.000000
 20
3485.000000
 40
0.000000
 41
0.000000
 42
0.000000
  0
SEQEND
  0
POLYLINE
  8
SOLDER
 66
1
 70
1
 40
0.000000
 41
0.000000
 39
0.000000
  0
VERTEX
  8
SOLDER
 10
2780.000000
 20
3585.000000
 40
0.000000
 41
0.000000
 42
0.000000
  0
VERTEX
  8
SOLDER
 10
2780.000000
 20
3615.000000
 40
0.000000
 41
0.000000
 42
0.000000
  0
VERTEX
  8
SOLDER
 10
2835.000000
 20
3615.000000
 40
0.000000
 41
0.000000
 42
0.000000
  0
VERTEX
  8
SOLDER
 10
2835.000000
 20
3585.000000
 40
0.000000
 41
0.000000
 42
0.000000
  0
SEQEND
  0
POLYLINE
  8
SOLDER
 66
1
 70
1
 40
0.000000
 41
0.000000
 39
0.000000
  0
VERTEX
  8
SOLDER
 10
2780.000000
 20
3685.000000
 40
0.000000
 41
0.000000
 42
0.000000
  0
VERTEX
  8
SOLDER
 10
2780.000000
 20
3715.000000
 40
0.000000
 41
0.000000
 42
0.000000
  0
VERTEX
  8
SOLDER
 10
2835.000000
 20
3715.000000
 40
0.000000
 41
0.000000
 42
0.000000
  0
VERTEX
  8
SOLDER
 10
2835.000000
 20
3685.000000
 40
0.000000
 41
0.000000
 42
0.000000
  0
SEQEND
  0
POLYLINE
  8
SOLDER
 66
1
 70
1
 40
0.000000
 41
0.000000
 39
0.000000
  0
VERTEX
  8
SOLDER
 10
2780.000000
 20
3635.000000
 40
0.000000
 41
0.000000
 42
0.000000
  0
VERTEX
  8
SOLDER
 10
2780.000000
 20
3665.000000
 40
0.000000
 41
0.000000
 42
0.000000
  0
VERTEX
  8
SOLDER
 10
2835.000000
 20
3665.000000
 40
0.000000
 41
0.000000
 42
0.000000
  0
VERTEX
  8
SOLDER
 10
2835.000000
 20
3635.000000
 40
0.000000
 41
0.000000
 42
0.000000
  0
SEQEND
  0
POLYLINE
  8
SOLDER
 66
1
 70
1
 40
0.000000
 41
0.000000
 39
0.000000
  0
VERTEX
  8
SOLDER
 10
300.000000
 20
3335.000000
 40
0.000000
 41
0.000000
 42
0.000000
  0
VERTEX
  8
SOLDER
 10
300.000000
 20
3365.000000
 40
0.000000
 41
0.000000
 42
0.000000
  0
VERTEX
  8
SOLDER
 10
355.000000
 20
3365.000000
 40
0.000000
 41
0.000000
 42
0.000000
  0
VERTEX
  8
SOLDER
 10
355.000000
 20
3335.000000
 40
0.000000
 41
0.000000
 42
0.000000
  0
SEQEND
  0
POLYLINE
  8
SOLDER
 66
1
 70
1
 40
0.000000
 41
0.000000
 39
0.000000
  0
VERTEX
  8
SOLDER
 10
300.000000
 20
3385.000000
 40
0.000000
 41
0.000000
 42
0.000000
  0
VERTEX
  8
SOLDER
 10
300.000000
 20
3415.000000
 40
0.000000
 41
0.000000
 42
0.000000
  0
VERTEX
  8
SOLDER
 10
355.000000
 20
3415.000000
 40
0.000000
 41
0.000000
 42
0.000000
  0
VERTEX
  8
SOLDER
 10
355.000000
 20
3385.000000
 40
0.000000
 41
0.000000
 42
0.000000
  0
SEQEND
  0
POLYLINE
  8
SOLDER
 66
1
 70
1
 40
0.000000
 41
0.000000
 39
0.000000
  0
VERTEX
  8
SOLDER
 10
300.000000
 20
3435.000000
 40
0.000000
 41
0.000000
 42
0.000000
  0
VERTEX
  8
SOLDER
 10
300.000000
 20
3465.000000
 40
0.000000
 41
0.000000
 42
0.000000
  0
VERTEX
  8
SOLDER
 10
355.000000
 20
3465.000000
 40
0.000000
 41
0.000000
 42
0.000000
  0
VERTEX
  8
SOLDER
 10
355.000000
 20
3435.000000
 40
0.000000
 41
0.000000
 42
0.000000
  0
SEQEND
  0
POLYLINE
  8
SOLDER
 66
1
 70
1
 40
0.000000
 41
0.000000
 39
0.000000
  0
VERTEX
  8
SOLDER
 10
300.000000
 20
3485.000000
 40
0.000000
 41
0.000000
 42
0.000000
  0
VERTEX
  8
SOLDER
 10
300.000000
 20
3515.000000
 40
0.000000
 41
0.000000
 42
0.000000
  0
VERTEX
  8
SOLDER
 10
355.000000
 20
3515.000000
 40
0.000000
 41
0.000000
 42
0.000000
  0
VERTEX
  8
SOLDER
 10
355.000000
 20
3485.000000
 40
0.000000
 41
0.000000
 42
0.000000
  0
SEQEND
  0
POLYLINE
  8
SOLDER
 66
1
 70
1
 40
0.000000
 41
0.000000
 39
0.000000
  0
VERTEX
  8
SOLDER
 10
300.000000
 20
3535.000000
 40
0.000000
 41
0.000000
 42
0.000000
  0
VERTEX
  8
SOLDER
 10
300.000000
 20
3565.000000
 40
0.000000
 41
0.000000
 42
0.000000
  0
VERTEX
  8
SOLDER
 10
355.000000
 20
3565.000000
 40
0.000000
 41
0.000000
 42
0.000000
  0
VERTEX
  8
SOLDER
 10
355.000000
 20
3535.000000
 40
0.000000
 41
0.000000
 42
0.000000
  0
SEQEND
  0
POLYLINE
  8
SOLDER
 66
1
 70
1
 40
0.000000
 41
0.000000
 39
0.000000
  0
VERTEX
  8
SOLDER
 10
300.000000
 20
3585.000000
 40
0.000000
 41
0.000000
 42
0.000000
  0
VERTEX
  8
SOLDER
 10
300.000000
 20
3615.000000
 40
0.000000
 41
0.000000
 42
0.000000
  0
VERTEX
  8
SOLDER
 10
355.000000
 20
3615.000000
 40
0.000000
 41
0.000000
 42
0.000000
  0
VERTEX
  8
SOLDER
 10
355.000000
 20
3585.000000
 40
0.000000
 41
0.000000
 42
0.000000
  0
SEQEND
  0
POLYLINE
  8
SOLDER
 66
1
 70
1
 40
0.000000
 41
0.000000
 39
0.000000
  0
VERTEX
  8
SOLDER
 10
300.000000
 20
3635.000000
 40
0.000000
 41
0.000000
 42
0.000000
  0
VERTEX
  8
SOLDER
 10
300.000000
 20
3665.000000
 40
0.000000
 41
0.000000
 42
0.000000
  0
VERTEX
  8
SOLDER
 10
355.000000
 20
3665.000000
 40
0.000000
 41
0.000000
 42
0.000000
  0
VERTEX
  8
SOLDER
 10
355.000000
 20
3635.000000
 40
0.000000
 41
0.000000
 42
0.000000
  0
SEQEND
  0
POLYLINE
  8
SOLDER
 66
1
 70
1
 40
0.000000
 41
0.000000
 39
0.000000
  0
VERTEX
  8
SOLDER
 10
495.000000
 20
3335.000000
 40
0.000000
 41
0.000000
 42
0.000000
  0
VERTEX
  8
SOLDER
 10
495.000000
 20
3365.000000
 40
0.000000
 41
0.000000
 42
0.000000
  0
VERTEX
  8
SOLDER
 10
550.000000
 20
3365.000000
 40
0.000000
 41
0.000000
 42
0.000000
  0
VERTEX
  8
SOLDER
 10
550.000000
 20
3335.000000
 40
0.000000
 41
0.000000
 42
0.000000
  0
SEQEND
  0
POLYLINE
  8
SOLDER
 66
1
 70
1
 40
0.000000
 41
0.000000
 39
0.000000
  0
VERTEX
  8
SOLDER
 10
495.000000
 20
3385.000000
 40
0.000000
 41
0.000000
 42
0.000000
  0
VERTEX
  8
SOLDER
 10
495.000000
 20
3415.000000
 40
0.000000
 41
0.000000
 42
0.000000
  0
VERTEX
  8
SOLDER
 10
550.000000
 20
3415.000000
 40
0.000000
 41
0.000000
 42
0.000000
  0
VERTEX
  8
SOLDER
 10
550.000000
 20
3385.000000
 40
0.000000
 41
0.000000
 42
0.000000
  0
SEQEND
  0
POLYLINE
  8
SOLDER
 66
1
 70
1
 40
0.000000
 41
0.000000
 39
0.000000
  0
VERTEX
  8
SOLDER
 10
495.000000
 20
3485.000000
 40
0.000000
 41
0.000000
 42
0.000000
  0
VERTEX
  8
SOLDER
 10
495.000000
 20
3515.000000
 40
0.000000
 41
0.000000
 42
0.000000
  0
VERTEX
  8
SOLDER
 10
550.000000
 20
3515.000000
 40
0.000000
 41
0.000000
 42
0.000000
  0
VERTEX
  8
SOLDER
 10
550.000000
 20
3485.000000
 40
0.000000
 41
0.000000
 42
0.000000
  0
SEQEND
  0
POLYLINE
  8
SOLDER
 66
1
 70
1
 40
0.000000
 41
0.000000
 39
0.000000
  0
VERTEX
  8
SOLDER
 10
495.000000
 20
3435.000000
 40
0.000000
 41
0.000000
 42
0.000000
  0
VERTEX
  8
SOLDER
 10
495.000000
 20
3465.000000
 40
0.000000
 41
0.000000
 42
0.000000
  0
VERTEX
  8
SOLDER
 10
550.000000
 20
3465.000000
 40
0.000000
 41
0.000000
 42
0.000000
  0
VERTEX
  8
SOLDER
 10
550.000000
 20
3435.000000
 40
0.000000
 41
0.000000
 42
0.000000
  0
SEQEND
  0
POLYLINE
  8
SOLDER
 66
1
 70
1
 40
0.000000
 41
0.000000
 39
0.000000
  0
VERTEX
  8
SOLDER
 10
495.000000
 20
3535.000000
 40
0.000000
 41
0.000000
 42
0.000000
  0
VERTEX
  8
SOLDER
 10
495.000000
 20
3565.000000
 40
0.000000
 41
0.000000
 42
0.000000
  0
VERTEX
  8
SOLDER
 10
550.000000
 20
3565.000000
 40
0.000000
 41
0.000000
 42
0.000000
  0
VERTEX
  8
SOLDER
 10
550.000000
 20
3535.000000
 40
0.000000
 41
0.000000
 42
0.000000
  0
SEQEND
  0
POLYLINE
  8
SOLDER
 66
1
 70
1
 40
0.000000
 41
0.000000
 39
0.000000
  0
VERTEX
  8
SOLDER
 10
495.000000
 20
3635.000000
 40
0.000000
 41
0.000000
 42
0.000000
  0
VERTEX
  8
SOLDER
 10
495.000000
 20
3665.000000
 40
0.000000
 41
0.000000
 42
0.000000
  0
VERTEX
  8
SOLDER
 10
550.000000
 20
3665.000000
 40
0.000000
 41
0.000000
 42
0.000000
  0
VERTEX
  8
SOLDER
 10
550.000000
 20
3635.000000
 40
0.000000
 41
0.000000
 42
0.000000
  0
SEQEND
  0
POLYLINE
  8
SOLDER
 66
1
 70
1
 40
0.000000
 41
0.000000
 39
0.000000
  0
VERTEX
  8
SOLDER
 10
495.000000
 20
3585.000000
 40
0.000000
 41
0.000000
 42
0.000000
  0
VERTEX
  8
SOLDER
 10
495.000000
 20
3615.000000
 40
0.000000
 41
0.000000
 42
0.000000
  0
VERTEX
  8
SOLDER
 10
550.000000
 20
3615.000000
 40
0.000000
 41
0.000000
 42
0.000000
  0
VERTEX
  8
SOLDER
 10
550.000000
 20
3585.000000
 40
0.000000
 41
0.000000
 42
0.000000
  0
SEQEND
  0
POLYLINE
  8
SOLDER
 66
1
 70
1
 40
0.000000
 41
0.000000
 39
0.000000
  0
VERTEX
  8
SOLDER
 10
1450.000000
 20
3665.000000
 40
0.000000
 41
0.000000
 42
0.000000
  0
VERTEX
  8
SOLDER
 10
1450.000000
 20
3635.000000
 40
0.000000
 41
0.000000
 42
0.000000
  0
VERTEX
  8
SOLDER
 10
1395.000000
 20
3635.000000
 40
0.000000
 41
0.000000
 42
0.000000
  0
VERTEX
  8
SOLDER
 10
1395.000000
 20
3665.000000
 40
0.000000
 41
0.000000
 42
0.000000
  0
SEQEND
  0
POLYLINE
  8
SOLDER
 66
1
 70
1
 40
0.000000
 41
0.000000
 39
0.000000
  0
VERTEX
  8
SOLDER
 10
1450.000000
 20
3615.000000
 40
0.000000
 41
0.000000
 42
0.000000
  0
VERTEX
  8
SOLDER
 10
1450.000000
 20
3585.000000
 40
0.000000
 41
0.000000
 42
0.000000
  0
VERTEX
  8
SOLDER
 10
1395.000000
 20
3585.000000
 40
0.000000
 41
0.000000
 42
0.000000
  0
VERTEX
  8
SOLDER
 10
1395.000000
 20
3615.000000
 40
0.000000
 41
0.000000
 42
0.000000
  0
SEQEND
  0
POLYLINE
  8
SOLDER
 66
1
 70
1
 40
0.000000
 41
0.000000
 39
0.000000
  0
VERTEX
  8
SOLDER
 10
1450.000000
 20
3565.000000
 40
0.000000
 41
0.000000
 42
0.000000
  0
VERTEX
  8
SOLDER
 10
1450.000000
 20
3535.000000
 40
0.000000
 41
0.000000
 42
0.000000
  0
VERTEX
  8
SOLDER
 10
1395.000000
 20
3535.000000
 40
0.000000
 41
0.000000
 42
0.000000
  0
VERTEX
  8
SOLDER
 10
1395.000000
 20
3565.000000
 40
0.000000
 41
0.000000
 42
0.000000
  0
SEQEND
  0
POLYLINE
  8
SOLDER
 66
1
 70
1
 40
0.000000
 41
0.000000
 39
0.000000
  0
VERTEX
  8
SOLDER
 10
1450.000000
 20
3515.000000
 40
0.000000
 41
0.000000
 42
0.000000
  0
VERTEX
  8
SOLDER
 10
1450.000000
 20
3485.000000
 40
0.000000
 41
0.000000
 42
0.000000
  0
VERTEX
  8
SOLDER
 10
1395.000000
 20
3485.000000
 40
0.000000
 41
0.000000
 42
0.000000
  0
VERTEX
  8
SOLDER
 10
1395.000000
 20
3515.000000
 40
0.000000
 41
0.000000
 42
0.000000
  0
SEQEND
  0
POLYLINE
  8
SOLDER
 66
1
 70
1
 40
0.000000
 41
0.000000
 39
0.000000
  0
VERTEX
  8
SOLDER
 10
1450.000000
 20
3465.000000
 40
0.000000
 41
0.000000
 42
0.000000
  0
VERTEX
  8
SOLDER
 10
1450.000000
 20
3435.000000
 40
0.000000
 41
0.000000
 42
0.000000
  0
VERTEX
  8
SOLDER
 10
1395.000000
 20
3435.000000
 40
0.000000
 41
0.000000
 42
0.000000
  0
VERTEX
  8
SOLDER
 10
1395.000000
 20
3465.000000
 40
0.000000
 41
0.000000
 42
0.000000
  0
SEQEND
  0
POLYLINE
  8
SOLDER
 66
1
 70
1
 40
0.000000
 41
0.000000
 39
0.000000
  0
VERTEX
  8
SOLDER
 10
1450.000000
 20
3415.000000
 40
0.000000
 41
0.000000
 42
0.000000
  0
VERTEX
  8
SOLDER
 10
1450.000000
 20
3385.000000
 40
0.000000
 41
0.000000
 42
0.000000
  0
VERTEX
  8
SOLDER
 10
1395.000000
 20
3385.000000
 40
0.000000
 41
0.000000
 42
0.000000
  0
VERTEX
  8
SOLDER
 10
1395.000000
 20
3415.000000
 40
0.000000
 41
0.000000
 42
0.000000
  0
SEQEND
  0
POLYLINE
  8
SOLDER
 66
1
 70
1
 40
0.000000
 41
0.000000
 39
0.000000
  0
VERTEX
  8
SOLDER
 10
1450.000000
 20
3365.000000
 40
0.000000
 41
0.000000
 42
0.000000
  0
VERTEX
  8
SOLDER
 10
1450.000000
 20
3335.000000
 40
0.000000
 41
0.000000
 42
0.000000
  0
VERTEX
  8
SOLDER
 10
1395.000000
 20
3335.000000
 40
0.000000
 41
0.000000
 42
0.000000
  0
VERTEX
  8
SOLDER
 10
1395.000000
 20
3365.000000
 40
0.000000
 41
0.000000
 42
0.000000
  0
SEQEND
  0
POLYLINE
  8
SOLDER
 66
1
 70
1
 40
0.000000
 41
0.000000
 39
0.000000
  0
VERTEX
  8
SOLDER
 10
1255.000000
 20
3665.000000
 40
0.000000
 41
0.000000
 42
0.000000
  0
VERTEX
  8
SOLDER
 10
1255.000000
 20
3635.000000
 40
0.000000
 41
0.000000
 42
0.000000
  0
VERTEX
  8
SOLDER
 10
1200.000000
 20
3635.000000
 40
0.000000
 41
0.000000
 42
0.000000
  0
VERTEX
  8
SOLDER
 10
1200.000000
 20
3665.000000
 40
0.000000
 41
0.000000
 42
0.000000
  0
SEQEND
  0
POLYLINE
  8
SOLDER
 66
1
 70
1
 40
0.000000
 41
0.000000
 39
0.000000
  0
VERTEX
  8
SOLDER
 10
1255.000000
 20
3615.000000
 40
0.000000
 41
0.000000
 42
0.000000
  0
VERTEX
  8
SOLDER
 10
1255.000000
 20
3585.000000
 40
0.000000
 41
0.000000
 42
0.000000
  0
VERTEX
  8
SOLDER
 10
1200.000000
 20
3585.000000
 40
0.000000
 41
0.000000
 42
0.000000
  0
VERTEX
  8
SOLDER
 10
1200.000000
 20
3615.000000
 40
0.000000
 41
0.000000
 42
0.000000
  0
SEQEND
  0
POLYLINE
  8
SOLDER
 66
1
 70
1
 40
0.000000
 41
0.000000
 39
0.000000
  0
VERTEX
  8
SOLDER
 10
1255.000000
 20
3515.000000
 40
0.000000
 41
0.000000
 42
0.000000
  0
VERTEX
  8
SOLDER
 10
1255.000000
 20
3485.000000
 40
0.000000
 41
0.000000
 42
0.000000
  0
VERTEX
  8
SOLDER
 10
1200.000000
 20
3485.000000
 40
0.000000
 41
0.000000
 42
0.000000
  0
VERTEX
  8
SOLDER
 10
1200.000000
 20
3515.000000
 40
0.000000
 41
0.000000
 42
0.000000
  0
SEQEND
  0
POLYLINE
  8
SOLDER
 66
1
 70
1
 40
0.000000
 41
0.000000
 39
0.000000
  0
VERTEX
  8
SOLDER
 10
1255.000000
 20
3565.000000
 40
0.000000
 41
0.000000
 42
0.000000
  0
VERTEX
  8
SOLDER
 10
1255.000000
 20
3535.000000
 40
0.000000
 41
0.000000
 42
0.000000
  0
VERTEX
  8
SOLDER
 10
1200.000000
 20
3535.000000
 40
0.000000
 41
0.000000
 42
0.000000
  0
VERTEX
  8
SOLDER
 10
1200.000000
 20
3565.000000
 40
0.000000
 41
0.000000
 42
0.000000
  0
SEQEND
  0
POLYLINE
  8
SOLDER
 66
1
 70
1
 40
0.000000
 41
0.000000
 39
0.000000
  0
VERTEX
  8
SOLDER
 10
1255.000000
 20
3465.000000
 40
0.000000
 41
0.000000
 42
0.000000
  0
VERTEX
  8
SOLDER
 10
1255.000000
 20
3435.000000
 40
0.000000
 41
0.000000
 42
0.000000
  0
VERTEX
  8
SOLDER
 10
1200.000000
 20
3435.000000
 40
0.000000
 41
0.000000
 42
0.000000
  0
VERTEX
  8
SOLDER
 10
1200.000000
 20
3465.000000
 40
0.000000
 41
0.000000
 42
0.000000
  0
SEQEND
  0
POLYLINE
  8
SOLDER
 66
1
 70
1
 40
0.000000
 41
0.000000
 39
0.000000
  0
VERTEX
  8
SOLDER
 10
1255.000000
 20
3365.000000
 40
0.000000
 41
0.000000
 42
0.000000
  0
VERTEX
  8
SOLDER
 10
1255.000000
 20
3335.000000
 40
0.000000
 41
0.000000
 42
0.000000
  0
VERTEX
  8
SOLDER
 10
1200.000000
 20
3335.000000
 40
0.000000
 41
0.000000
 42
0.000000
  0
VERTEX
  8
SOLDER
 10
1200.000000
 20
3365.000000
 40
0.000000
 41
0.000000
 42
0.000000
  0
SEQEND
  0
POLYLINE
  8
SOLDER
 66
1
 70
1
 40
0.000000
 41
0.000000
 39
0.000000
  0
VERTEX
  8
SOLDER
 10
1255.000000
 20
3415.000000
 40
0.000000
 41
0.000000
 42
0.000000
  0
VERTEX
  8
SOLDER
 10
1255.000000
 20
3385.000000
 40
0.000000
 41
0.000000
 42
0.000000
  0
VERTEX
  8
SOLDER
 10
1200.000000
 20
3385.000000
 40
0.000000
 41
0.000000
 42
0.000000
  0
VERTEX
  8
SOLDER
 10
1200.000000
 20
3415.000000
 40
0.000000
 41
0.000000
 42
0.000000
  0
SEQEND
  0
CIRCLE
  8
SOLDER
 10
761.290000
 20
69.020000
 40
37.500000
  0
CIRCLE
  8
SOLDER
 10
842.400000
 20
-46.820000
 40
37.500000
  0
CIRCLE
  8
SOLDER
 10
859.770000
 20
51.660000
 40
37.500000
  0
CIRCLE
  8
SOLDER
 10
940.880000
 20
-64.190000
 40
37.500000
  0
CIRCLE
  8
SOLDER
 10
958.250000
 20
34.290000
 40
37.500000
  0
CIRCLE
  8
SOLDER
 10
1039.370000
 20
-81.550000
 40
37.500000
  0
CIRCLE
  8
SOLDER
 10
1056.730000
 20
16.930000
 40
37.500000
  0
CIRCLE
  8
SOLDER
 10
1137.850000
 20
-98.920000
 40
37.500000
  0
CIRCLE
  8
SOLDER
 10
1155.210000
 20
-0.440000
 40
37.500000
  0
CIRCLE
  8
SOLDER
 10
1236.330000
 20
-116.280000
 40
37.500000
  0
CIRCLE
  8
SOLDER
 10
350.000000
 20
40.000000
 40
37.500000
  0
CIRCLE
  8
SOLDER
 10
1253.690000
 20
-17.800000
 40
37.500000
  0
CIRCLE
  8
SOLDER
 10
1334.810000
 20
-133.650000
 40
37.500000
  0
CIRCLE
  8
SOLDER
 10
1352.170000
 20
-35.170000
 40
37.500000
  0
CIRCLE
  8
SOLDER
 10
1433.290000
 20
-151.010000
 40
37.500000
  0
CIRCLE
  8
SOLDER
 10
1450.650000
 20
-52.530000
 40
37.500000
  0
CIRCLE
  8
SOLDER
 10
1531.770000
 20
-168.380000
 40
37.500000
  0
CIRCLE
  8
SOLDER
 10
1549.130000
 20
-69.900000
 40
37.500000
  0
CIRCLE
  8
SOLDER
 10
1630.250000
 20
-185.740000
 40
37.500000
  0
CIRCLE
  8
SOLDER
 10
1647.610000
 20
-87.260000
 40
37.500000
  0
CIRCLE
  8
SOLDER
 10
1728.730000
 20
-203.110000
 40
37.500000
  0
CIRCLE
  8
SOLDER
 10
367.360000
 20
138.480000
 40
37.500000
  0
CIRCLE
  8
SOLDER
 10
1746.100000
 20
-104.630000
 40
37.500000
  0
CIRCLE
  8
SOLDER
 10
1827.210000
 20
-220.470000
 40
37.500000
  0
CIRCLE
  8
SOLDER
 10
1844.580000
 20
-121.990000
 40
37.500000
  0
CIRCLE
  8
SOLDER
 10
1925.690000
 20
-237.840000
 40
37.500000
  0
CIRCLE
  8
SOLDER
 10
1943.060000
 20
-139.360000
 40
37.500000
  0
CIRCLE
  8
SOLDER
 10
2024.170000
 20
-255.200000
 40
37.500000
  0
CIRCLE
  8
SOLDER
 10
2041.540000
 20
-156.720000
 40
37.500000
  0
CIRCLE
  8
SOLDER
 10
2122.650000
 20
-272.570000
 40
37.500000
  0
CIRCLE
  8
SOLDER
 10
2140.020000
 20
-174.090000
 40
37.500000
  0
CIRCLE
  8
SOLDER
 10
2221.130000
 20
-289.930000
 40
37.500000
  0
CIRCLE
  8
SOLDER
 10
448.480000
 20
22.640000
 40
37.500000
  0
CIRCLE
  8
SOLDER
 10
2238.500000
 20
-191.450000
 40
37.500000
  0
CIRCLE
  8
SOLDER
 10
2319.620000
 20
-307.300000
 40
37.500000
  0
CIRCLE
  8
SOLDER
 10
2336.980000
 20
-208.820000
 40
37.500000
  0
CIRCLE
  8
SOLDER
 10
2418.100000
 20
-324.660000
 40
37.500000
  0
CIRCLE
  8
SOLDER
 10
2435.460000
 20
-226.180000
 40
37.500000
  0
CIRCLE
  8
SOLDER
 10
2516.580000
 20
-342.030000
 40
37.500000
  0
CIRCLE
  8
SOLDER
 10
2533.940000
 20
-243.550000
 40
37.500000
  0
CIRCLE
  8
SOLDER
 10
2615.060000
 20
-359.390000
 40
37.500000
  0
CIRCLE
  8
SOLDER
 10
2632.420000
 20
-260.910000
 40
37.500000
  0
CIRCLE
  8
SOLDER
 10
2713.540000
 20
-376.760000
 40
37.500000
  0
CIRCLE
  8
SOLDER
 10
465.850000
 20
121.120000
 40
37.500000
  0
CIRCLE
  8
SOLDER
 10
2730.900000
 20
-278.270000
 40
37.500000
  0
CIRCLE
  8
SOLDER
 10
546.960000
 20
5.270000
 40
37.500000
  0
CIRCLE
  8
SOLDER
 10
564.330000
 20
103.750000
 40
37.500000
  0
CIRCLE
  8
SOLDER
 10
645.440000
 20
-12.090000
 40
37.500000
  0
CIRCLE
  8
SOLDER
 10
662.810000
 20
86.390000
 40
37.500000
  0
CIRCLE
  8
SOLDER
 10
743.920000
 20
-29.460000
 40
37.500000
  0
CIRCLE
  8
SOLDER
 10
0.000000
 20
0.000000
 40
53.000000
  0
CIRCLE
  8
SOLDER
 10
0.000000
 20
3700.000000
 40
53.000000
  0
CIRCLE
  8
SOLDER
 10
3100.000000
 20
3700.000000
 40
53.000000
  0
CIRCLE
  8
SOLDER
 10
3100.000000
 20
0.000000
 40
53.000000
  0
POLYLINE
  8
SOLDER
 66
1
 70
1
 40
0.000000
 41
0.000000
 39
0.000000
  0
VERTEX
  8
SOLDER
 10
-150.000000
 20
-100.000000
 40
0.000000
 41
0.000000
 42
0.000000
  0
VERTEX
  8
SOLDER
 10
-150.000000
 20
100.000000
 40
0.000000
 41
0.000000
 42
0.000000
  0
VERTEX
  8
SOLDER
 10
-100.000000
 20
150.000000
 40
0.000000
 41
0.000000
 42
0.000000
  0
VERTEX
  8
SOLDER
 10
150.000000
 20
150.000000
 40
0.000000
 41
0.000000
 42
0.000000
  0
VERTEX
  8
SOLDER
 10
150.000000
 20
3550.000000
 40
0.000000
 41
0.000000
 42
0.000000
  0
VERTEX
  8
SOLDER
 10
-100.000000
 20
3550.000000
 40
0.000000
 41
0.000000
 42
0.000000
  0
VERTEX
  8
SOLDER
 10
-150.000000
 20
3600.000000
 40
0.000000
 41
0.000000
 42
0.000000
  0
VERTEX
  8
SOLDER
 10
-150.000000
 20
3800.000000
 40
0.000000
 41
0.000000
 42
0.000000
  0
VERTEX
  8
SOLDER
 10
-100.000000
 20
3850.000000
 40
0.000000
 41
0.000000
 42
0.000000
  0
VERTEX
  8
SOLDER
 10
3200.000000
 20
3850.000000
 40
0.000000
 41
0.000000
 42
0.000000
  0
VERTEX
  8
SOLDER
 10
3250.000000
 20
3800.000000
 40
0.000000
 41
0.000000
 42
0.000000
  0
VERTEX
  8
SOLDER
 10
3250.000000
 20
3600.000000
 40
0.000000
 41
0.000000
 42
0.000000
  0
VERTEX
  8
SOLDER
 10
3200.000000
 20
3550.000000
 40
0.000000
 41
0.000000
 42
0.000000
  0
VERTEX
  8
SOLDER
 10
2950.000000
 20
3550.000000
 40
0.000000
 41
0.000000
 42
0.000000
  0
VERTEX
  8
SOLDER
 10
2950.000000
 20
150.000000
 40
0.000000
 41
0.000000
 42
0.000000
  0
VERTEX
  8
SOLDER
 10
3200.000000
 20
150.000000
 40
0.000000
 41
0.000000
 42
0.000000
  0
VERTEX
  8
SOLDER
 10
3250.000000
 20
100.000000
 40
0.000000
 41
0.000000
 42
0.000000
  0
VERTEX
  8
SOLDER
 10
3250.000000
 20
-100.000000
 40
0.000000
 41
0.000000
 42
0.000000
  0
VERTEX
  8
SOLDER
 10
3200.000000
 20
-150.000000
 40
0.000000
 41
0.000000
 42
0.000000
  0
VERTEX
  8
SOLDER
 10
-100.000000
 20
-150.000000
 40
0.000000
 41
0.000000
 42
0.000000
  0
SEQEND
  0
ENDSEC
  0
EOF
