  0
SECTION
  2
HEADER
  9
$ACADVER
  1
AC1012
  9
$DWGCODEPAGE
  3
ansi_1252
  9
$INSBASE
 10
0.0
 20
0.0
 30
0.0
  9
$EXTMIN
 10
0.792
 20
0.771
 30
0.0
  9
$EXTMAX
 10
5.201
 20
2.811
 30
0.0
  9
$LIMMIN
 10
0.792
 20
0.771
  9
$LIMMAX
 10
5.201
 20
2.811
  9
$ORTHOMODE
 70
     0
  9
$REGENMODE
 70
     1
  9
$FILLMODE
 70
     1
  9
$QTEXTMODE
 70
     0
  9
$MIRRTEXT
 70
     1
  9
$DRAGMODE
 70
     2
  9
$LTSCALE
 40
1.0
  9
$OSMODE
 70
    37
  9
$ATTMODE
 70
     1
  9
$TEXTSIZE
 40
0.2
  9
$TRACEWID
 40
0.05
  9
$TEXTSTYLE
  7
STANDARD
  9
$CLAYER
  8
0
  9
$CELTYPE
  6
BYLAYER
  9
$CECOLOR
 62
    18
  9
$CELTSCALE
 40
1.0
  9
$DELOBJ
 70
     1
  9
$DISPSILH
 70
     0
  9
$DIMSCALE
 40
1.0
  9
$DIMASZ
 40
0.18
  9
$DIMEXO
 40
0.0625
  9
$DIMDLI
 40
0.38
  9
$DIMRND
 40
0.0
  9
$DIMDLE
 40
0.0
  9
$DIMEXE
 40
0.18
  9
$DIMTP
 40
0.0
  9
$DIMTM
 40
0.0
  9
$DIMTXT
 40
0.18
  9
$DIMCEN
 40
0.09
  9
$DIMTSZ
 40
0.0
  9
$DIMTOL
 70
     0
  9
$DIMLIM
 70
     0
  9
$DIMTIH
 70
     1
  9
$DIMTOH
 70
     1
  9
$DIMSE1
 70
     0
  9
$DIMSE2
 70
     0
  9
$DIMTAD
 70
     0
  9
$DIMZIN
 70
     0
  9
$DIMBLK
  1

  9
$DIMASO
 70
     1
  9
$DIMSHO
 70
     1
  9
$DIMPOST
  1

  9
$DIMAPOST
  1

  9
$DIMALT
 70
     0
  9
$DIMALTD
 70
     2
  9
$DIMALTF
 40
25.4
  9
$DIMLFAC
 40
1.0
  9
$DIMTOFL
 70
     0
  9
$DIMTVP
 40
0.0
  9
$DIMTIX
 70
     0
  9
$DIMSOXD
 70
     0
  9
$DIMSAH
 70
     0
  9
$DIMBLK1
  1

  9
$DIMBLK2
  1

  9
$DIMSTYLE
  2
STANDARD
  9
$DIMCLRD
 70
    18
  9
$DIMCLRE
 70
    18
  9
$DIMCLRT
 70
    18
  9
$DIMTFAC
 40
1.0
  9
$DIMGAP
 40
0.09
  9
$DIMJUST
 70
     0
  9
$DIMSD1
 70
     0
  9
$DIMSD2
 70
     0
  9
$DIMTOLJ
 70
     1
  9
$DIMTZIN
 70
     0
  9
$DIMALTZ
 70
     0
  9
$DIMALTTZ
 70
     0
  9
$DIMFIT
 70
     3
  9
$DIMUPT
 70
     0
  9
$DIMUNIT
 70
     2
  9
$DIMDEC
 70
     4
  9
$DIMTDEC
 70
     4
  9
$DIMALTU
 70
     2
  9
$DIMALTTD
 70
     2
  9
$DIMTXSTY
  7
STANDARD
  9
$DIMAUNIT
 70
     0
  9
$LUNITS
 70
     2
  9
$LUPREC
 70
     4
  9
$SKETCHINC
 40
0.1
  9
$FILLETRAD
 40
0.5
  9
$AUNITS
 70
     0
  9
$AUPREC
 70
     0
  9
$MENU
  1
.
  9
$ELEVATION
 40
0.0
  9
$PELEVATION
 40
0.0
  9
$THICKNESS
 40
0.0
  9
$LIMCHECK
 70
     0
  9
$CHAMFERA
 40
0.0
  9
$CHAMFERB
 40
0.0
  9
$CHAMFERC
 40
0.0
  9
$CHAMFERD
 40
0.0
  9
$SKPOLY
 70
     0
  9
$TDCREATE
 40
2457470.949387396
  9
$TDUPDATE
 40
2457470.949388275
  9
$TDINDWG
 40
0.0000000116
  9
$TDUSRTIMER
 40
0.0000000116
  9
$USRTIMER
 70
     1
  9
$ANGBASE
 50
0.0
  9
$ANGDIR
 70
     0
  9
$PDMODE
 70
     0
  9
$PDSIZE
 40
0.0
  9
$PLINEWID
 40
0.0
  9
$COORDS
 70
     1
  9
$SPLFRAME
 70
     0
  9
$SPLINETYPE
 70
     6
  9
$SPLINESEGS
 70
     8
  9
$ATTDIA
 70
     0
  9
$ATTREQ
 70
     1
  9
$HANDLING
 70
     1
  9
$HANDSEED
  5
945
  9
$SURFTAB1
 70
     6
  9
$SURFTAB2
 70
     6
  9
$SURFTYPE
 70
     6
  9
$SURFU
 70
     6
  9
$SURFV
 70
     6
  9
$UCSNAME
  2

  9
$UCSORG
 10
0.0
 20
0.0
 30
0.0
  9
$UCSXDIR
 10
1.0
 20
0.0
 30
0.0
  9
$UCSYDIR
 10
0.0
 20
1.0
 30
0.0
  9
$PUCSNAME
  2

  9
$PUCSORG
 10
0.0
 20
0.0
 30
0.0
  9
$PUCSXDIR
 10
1.0
 20
0.0
 30
0.0
  9
$PUCSYDIR
 10
0.0
 20
1.0
 30
0.0
  9
$USERI1
 70
     0
  9
$USERI2
 70
     0
  9
$USERI3
 70
     0
  9
$USERI4
 70
     0
  9
$USERI5
 70
     0
  9
$USERR1
 40
0.0
  9
$USERR2
 40
0.0
  9
$USERR3
 40
0.0
  9
$USERR4
 40
0.0
  9
$USERR5
 40
0.0
  9
$WORLDVIEW
 70
     1
  9
$SHADEDGE
 70
     3
  9
$SHADEDIF
 70
    70
  9
$TILEMODE
 70
     1
  9
$MAXACTVP
 70
     2
  9
$PINSBASE
 10
0.0
 20
0.0
 30
0.0
  9
$PLIMCHECK
 70
     0
  9
$PEXTMIN
 10
1.000000000000000E+20
 20
1.000000000000000E+20
 30
1.000000000000000E+20
  9
$PEXTMAX
 10
-1.000000000000000E+20
 20
-1.000000000000000E+20
 30
-1.000000000000000E+20
  9
$PLIMMIN
 10
0.0
 20
0.0
  9
$PLIMMAX
 10
12.0
 20
9.0
  9
$UNITMODE
 70
     0
  9
$VISRETAIN
 70
     1
  9
$PLINEGEN
 70
     0
  9
$PSLTSCALE
 70
     1
  9
$TREEDEPTH
 70
  3020
  9
$PICKSTYLE
 70
     1
  9
$CMLSTYLE
  2
STANDARD
  9
$CMLJUST
 70
     0
  9
$CMLSCALE
 40
1.0
  9
$SAVEIMAGES
 70
     1
  0
ENDSEC
  0
SECTION
  2
CLASSES
  0
CLASS
  1
ACDBDICTIONARYWDFLT
  2
AcDbDictionaryWithDefault
  3
ObjectDBX Classes
 90
    32768
280
     0
281
     0
  0
CLASS
  1
VISUALSTYLE
  2
AcDbVisualStyle
  3
ObjectDBX Classes
 90
     4095
280
     0
281
     0
  0
CLASS
  1
MATERIAL
  2
AcDbMaterial
  3
ObjectDBX Classes
 90
     1153
280
     0
281
     0
  0
CLASS
  1
SCALE
  2
AcDbScale
  3
ObjectDBX Classes
 90
     1153
280
     0
281
     0
  0
CLASS
  1
TABLESTYLE
  2
AcDbTableStyle
  3
ObjectDBX Classes
 90
     4095
280
     0
281
     0
  0
CLASS
  1
MLEADERSTYLE
  2
AcDbMLeaderStyle
  3
ACDB_MLEADERSTYLE_CLASS
 90
     4095
280
     0
281
     0
  0
CLASS
  1
SUN
  2
AcDbSun
  3
SCENEOE
 90
     1153
280
     0
281
     0
  0
CLASS
  1
DICTIONARYVAR
  2
AcDbDictionaryVar
  3
ObjectDBX Classes
 90
        0
280
     0
281
     0
  0
CLASS
  1
XRECORD
  2
AcDbXrecord
  3
ObjectDBX Classes
 90
    32768
280
     0
281
     0
  0
CLASS
  1
LWPOLYLINE
  2
AcDbPolyline
  3
ObjectDBX Classes
 90
    32768
280
     0
281
     1
  0
CLASS
  1
HATCH
  2
AcDbHatch
  3
ObjectDBX Classes
 90
    32768
280
     0
281
     1
  0
CLASS
  1
ACDBPLACEHOLDER
  2
AcDbPlaceHolder
  3
ObjectDBX Classes
 90
        0
280
     0
281
     0
  0
CLASS
  1
LAYOUT
  2
AcDbLayout
  3
ObjectDBX Classes
 90
        0
280
     0
281
     0
  0
ENDSEC
  0
SECTION
  2
TABLES
  0
TABLE
  2
VPORT
  5
663
330
0
100
AcDbSymbolTable
 70
     1
  0
VPORT
  5
683
330
663
100
AcDbSymbolTableRecord
100
AcDbViewportTableRecord
  2
*ACTIVE
 70
     0
 10
0.0
 20
0.0
 11
1.0
 21
1.0
 12
10.42990654205607
 22
4.5
 13
0.0
 23
0.0
 14
0.5
 24
0.5
 15
0.5
 25
0.5
 16
0.0
 26
0.0
 36
1.0
 17
0.0
 27
0.0
 37
0.0
 40
9.0
 41
1.972972972850329
 42
50.0
 43
0.0
 44
0.0
 50
0.0
 51
0.0
 71
     0
 72
   100
 73
     1
 74
     3
 75
     0
 76
     0
 77
     0
 78
     0
  0
ENDTAB
  0
TABLE
  2
LTYPE
  5
660
330
0
100
AcDbSymbolTable
 70
    48
  0
LTYPE
  5
66E
330
660
100
AcDbSymbolTableRecord
100
AcDbLinetypeTableRecord
  2
BYBLOCK
 70
     0
  3

 72
    65
 73
     0
 40
0.0
  0
LTYPE
  5
66F
330
660
100
AcDbSymbolTableRecord
100
AcDbLinetypeTableRecord
  2
BYLAYER
 70
     0
  3

 72
    65
 73
     0
 40
0.0
  0
LTYPE
  5
670
330
660
100
AcDbSymbolTableRecord
100
AcDbLinetypeTableRecord
  2
CONTINUOUS
 70
     0
  3
Solid line
 72
    65
 73
     0
 40
0.0
  0
LTYPE
  5
6FA
330
660
100
AcDbSymbolTableRecord
100
AcDbLinetypeTableRecord
  2
ACAD_ISO15W100
 70
     0
  3
ISO double-dash triple-dot __ __ . . . __ __ . .
 72
    65
 73
    10
 40
39.0
 49
12.0
 74
     0
 49
-3.0
 74
     0
 49
12.0
 74
     0
 49
-3.0
 74
     0
 49
0.0
 74
     0
 49
-3.0
 74
     0
 49
0.0
 74
     0
 49
-3.0
 74
     0
 49
0.0
 74
     0
 49
-3.0
 74
     0
  0
LTYPE
  5
6FD
330
660
100
AcDbSymbolTableRecord
100
AcDbLinetypeTableRecord
  2
BATTING
 70
     0
  3
Batting SSSSSSSSSSSSSSSSSSSSSSSSSSSSSSSSSSSSSSSSSSSSSSS
 72
    65
 73
     4
 40
10.16254
 49
0.00254
 74
     0
 49
-2.54
 74
     2
 75
     0
340
6FB
 46
2.54
 50
0.0
 44
-2.54
 45
0.0
  9
BAT
 49
-5.08
 74
     2
 75
     0
340
6FC
 46
2.54
 50
180.0
 44
2.54
 45
0.0
  9
BAT
 49
-2.54
 74
     0
  0
LTYPE
  5
6FE
330
660
100
AcDbSymbolTableRecord
100
AcDbLinetypeTableRecord
  2
ACAD_ISO13W100
 70
     0
  3
ISO double-dash double-dot __ __ . . __ __ . . _
 72
    65
 73
     8
 40
36.0
 49
12.0
 74
     0
 49
-3.0
 74
     0
 49
12.0
 74
     0
 49
-3.0
 74
     0
 49
0.0
 74
     0
 49
-3.0
 74
     0
 49
0.0
 74
     0
 49
-3.0
 74
     0
  0
LTYPE
  5
6FF
330
660
100
AcDbSymbolTableRecord
100
AcDbLinetypeTableRecord
  2
ACAD_ISO14W100
 70
     0
  3
ISO dash triple-dot __ . . . __ . . . __ . . . _
 72
    65
 73
     8
 40
24.0
 49
12.0
 74
     0
 49
-3.0
 74
     0
 49
0.0
 74
     0
 49
-3.0
 74
     0
 49
0.0
 74
     0
 49
-3.0
 74
     0
 49
0.0
 74
     0
 49
-3.0
 74
     0
  0
LTYPE
  5
701
330
660
100
AcDbSymbolTableRecord
100
AcDbLinetypeTableRecord
  2
HOT_WATER_SUPPLY
 70
     0
  3
Hot water supply ---- HW ---- HW ---- HW ----
 72
    65
 73
     3
 40
22.86
 49
12.7
 74
     0
 49
-5.08
 74
     2
 75
     0
340
700
 46
2.54
 50
0.0
 44
-2.54
 45
-1.27
  9
HW
 49
-5.08
 74
     0
  0
LTYPE
  5
702
330
660
100
AcDbSymbolTableRecord
100
AcDbLinetypeTableRecord
  2
PHANTOM
 70
     0
  3
Phantom ______  __  __  ______  __  __  ______ 
 72
    65
 73
     6
 40
63.50000000000001
 49
31.75
 74
     0
 49
-6.35
 74
     0
 49
6.35
 74
     0
 49
-6.35
 74
     0
 49
6.35
 74
     0
 49
-6.35
 74
     0
  0
LTYPE
  5
703
330
660
100
AcDbSymbolTableRecord
100
AcDbLinetypeTableRecord
  2
HIDDEN2
 70
     0
  3
Hidden (.5x) _ _ _ _ _ _ _ _ _ _ _ _ _ _ _ _ _ 
 72
    65
 73
     2
 40
4.762499999999999
 49
3.175
 74
     0
 49
-1.5875
 74
     0
  0
LTYPE
  5
704
330
660
100
AcDbSymbolTableRecord
100
AcDbLinetypeTableRecord
  2
HIDDENX2
 70
     0
  3
Hidden (2x) ____ ____ ____ ____ ____ ____ ____ 
 72
    65
 73
     2
 40
19.05
 49
12.7
 74
     0
 49
-6.35
 74
     0
  0
LTYPE
  5
706
330
660
100
AcDbSymbolTableRecord
100
AcDbLinetypeTableRecord
  2
GAS_LINE
 70
     0
  3
Gas line ----GAS----GAS----GAS----GAS----GAS----GAS--
 72
    65
 73
     3
 40
24.13
 49
12.7
 74
     0
 49
-5.08
 74
     2
 75
     0
340
705
 46
2.54
 50
0.0
 44
-2.54
 45
-1.27
  9
GAS
 49
-6.35
 74
     0
  0
LTYPE
  5
707
330
660
100
AcDbSymbolTableRecord
100
AcDbLinetypeTableRecord
  2
HIDDEN
 70
     0
  3
Hidden __ __ __ __ __ __ __ __ __ __ __ __ __ __
 72
    65
 73
     2
 40
9.524999999999999
 49
6.35
 74
     0
 49
-3.175
 74
     0
  0
LTYPE
  5
709
330
660
100
AcDbSymbolTableRecord
100
AcDbLinetypeTableRecord
  2
FENCELINE1
 70
     0
  3
Fenceline circle ----0-----0----0-----0----0-----0--
 72
    65
 73
     4
 40
36.83
 49
6.35
 74
     0
 49
-2.54
 74
     2
 75
     0
340
708
 46
2.54
 50
0.0
 44
-2.54
 45
0.0
  9
CIRC1
 49
-2.54
 74
     0
 49
25.4
 74
     0
  0
LTYPE
  5
70B
330
660
100
AcDbSymbolTableRecord
100
AcDbLinetypeTableRecord
  2
FENCELINE2
 70
     0
  3
Fenceline square ----[]-----[]----[]-----[]----[]---
 72
    65
 73
     4
 40
36.83
 49
6.35
 74
     0
 49
-2.54
 74
     2
 75
     0
340
70A
 46
2.54
 50
0.0
 44
-2.54
 45
0.0
  9
BOX
 49
-2.54
 74
     0
 49
25.4
 74
     0
  0
LTYPE
  5
70D
330
660
100
AcDbSymbolTableRecord
100
AcDbLinetypeTableRecord
  2
DRAINAGE
 70
     0
  3
Drainage ---->---->---->----
 72
    65
 73
     2
 40
10.16
 49
5.08
 74
     2
 75
     0
340
70C
 46
2.54
 50
180.0
 44
0.0
 45
0.0
  9
RIGHT_ARROW
 49
5.08
 74
     0
  0
LTYPE
  5
70F
330
660
100
AcDbSymbolTableRecord
100
AcDbLinetypeTableRecord
  2
DRAINAGE2
 70
     0
  3
Drainage reversed----<----<----<----
 72
    65
 73
     2
 40
10.16
 49
5.08
 74
     2
 75
     0
340
70E
 46
2.54
 50
0.0
 44
0.0
 45
0.0
  9
RIGHT_ARROW
 49
5.08
 74
     0
  0
LTYPE
  5
710
330
660
100
AcDbSymbolTableRecord
100
AcDbLinetypeTableRecord
  2
DOT2
 70
     0
  3
Dot (.5x) ........................................
 72
    65
 73
     2
 40
3.175
 49
0.0
 74
     0
 49
-3.175
 74
     0
  0
LTYPE
  5
711
330
660
100
AcDbSymbolTableRecord
100
AcDbLinetypeTableRecord
  2
DOTX2
 70
     0
  3
Dot (2x) .  .  .  .  .  .  .  .  .  .  .  .  .  .
 72
    65
 73
     2
 40
12.7
 49
0.0
 74
     0
 49
-12.7
 74
     0
  0
LTYPE
  5
712
330
660
100
AcDbSymbolTableRecord
100
AcDbLinetypeTableRecord
  2
DIVIDEX2
 70
     0
  3
Divide (2x) ________  .  .  ________  .  .  _
 72
    65
 73
     6
 40
63.5
 49
25.4
 74
     0
 49
-12.7
 74
     0
 49
0.0
 74
     0
 49
-12.7
 74
     0
 49
0.0
 74
     0
 49
-12.7
 74
     0
  0
LTYPE
  5
713
330
660
100
AcDbSymbolTableRecord
100
AcDbLinetypeTableRecord
  2
DOT
 70
     0
  3
Dot . . . . . . . . . . . . . . . . . . . . . . . .
 72
    65
 73
     2
 40
6.35
 49
0.0
 74
     0
 49
-6.35
 74
     0
  0
LTYPE
  5
714
330
660
100
AcDbSymbolTableRecord
100
AcDbLinetypeTableRecord
  2
DIVIDE
 70
     0
  3
Divide ____ . . ____ . . ____ . . ____ . . ____
 72
    65
 73
     6
 40
31.75
 49
12.7
 74
     0
 49
-6.35
 74
     0
 49
0.0
 74
     0
 49
-6.35
 74
     0
 49
0.0
 74
     0
 49
-6.35
 74
     0
  0
LTYPE
  5
715
330
660
100
AcDbSymbolTableRecord
100
AcDbLinetypeTableRecord
  2
DIVIDE2
 70
     0
  3
Divide (.5x) __..__..__..__..__..__..__..__.._
 72
    65
 73
     6
 40
15.875
 49
6.35
 74
     0
 49
-3.175
 74
     0
 49
0.0
 74
     0
 49
-3.175
 74
     0
 49
0.0
 74
     0
 49
-3.175
 74
     0
  0
LTYPE
  5
717
330
660
100
AcDbSymbolTableRecord
100
AcDbLinetypeTableRecord
  2
TRACKS
 70
     0
  3
Tracks -|-|-|-|-|-|-|-|-|-|-|-|-|-|-|-|-|-|-|-|-|-|-|-|-
 72
    65
 73
     2
 40
7.62
 49
3.81
 74
     2
 75
     0
340
716
 46
6.35
 50
0.0
 44
0.0
 45
0.0
  9
TRACK1
 49
3.81
 74
     0
  0
LTYPE
  5
71A
330
660
100
AcDbSymbolTableRecord
100
AcDbLinetypeTableRecord
  2
ZIGZAG
 70
     0
  3
Zig zag /\/\/\/\/\/\/\/\/\/\/\/\/\/\/\/\/\/\/\/\/\/\/\/
 72
    65
 73
     4
 40
20.32254
 49
0.00254
 74
     0
 49
-5.08
 74
     2
 75
     0
340
718
 46
5.08
 50
0.0
 44
-5.08
 45
0.0
  9
ZIG
 49
-10.16
 74
     2
 75
     0
340
719
 46
5.08
 50
180.0
 44
5.08
 45
0.0
  9
ZIG
 49
-5.08
 74
     0
  0
LTYPE
  5
71B
330
660
100
AcDbSymbolTableRecord
100
AcDbLinetypeTableRecord
  2
PHANTOM2
 70
     0
  3
Phantom (.5x) ___ _ _ ___ _ _ ___ _ _ ___ _ _
 72
    65
 73
     6
 40
31.75
 49
15.875
 74
     0
 49
-3.175
 74
     0
 49
3.175
 74
     0
 49
-3.175
 74
     0
 49
3.175
 74
     0
 49
-3.175
 74
     0
  0
LTYPE
  5
71C
330
660
100
AcDbSymbolTableRecord
100
AcDbLinetypeTableRecord
  2
PHANTOMX2
 70
     0
  3
Phantom (2x) ____________    ____    ____   _
 72
    65
 73
     6
 40
127.0
 49
63.5
 74
     0
 49
-12.7
 74
     0
 49
12.7
 74
     0
 49
-12.7
 74
     0
 49
12.7
 74
     0
 49
-12.7
 74
     0
  0
LTYPE
  5
71D
330
660
100
AcDbSymbolTableRecord
100
AcDbLinetypeTableRecord
  2
ACAD_ISO11W100
 70
     0
  3
ISO double-dash dot __ __ . __ __ . __ __ . __ _
 72
    65
 73
     6
 40
33.0
 49
12.0
 74
     0
 49
-3.0
 74
     0
 49
12.0
 74
     0
 49
-3.0
 74
     0
 49
0.0
 74
     0
 49
-3.0
 74
     0
  0
LTYPE
  5
71E
330
660
100
AcDbSymbolTableRecord
100
AcDbLinetypeTableRecord
  2
ACAD_ISO12W100
 70
     0
  3
ISO dash double-dot __ . . __ . . __ . . __ . . 
 72
    65
 73
     6
 40
21.0
 49
12.0
 74
     0
 49
-3.0
 74
     0
 49
0.0
 74
     0
 49
-3.0
 74
     0
 49
0.0
 74
     0
 49
-3.0
 74
     0
  0
LTYPE
  5
71F
330
660
100
AcDbSymbolTableRecord
100
AcDbLinetypeTableRecord
  2
ACAD_ISO09W100
 70
     0
  3
ISO long-dash double-short-dash ____ __ __ ____
 72
    65
 73
     6
 40
45.0
 49
24.0
 74
     0
 49
-3.0
 74
     0
 49
6.0
 74
     0
 49
-3.0
 74
     0
 49
6.0
 74
     0
 49
-3.0
 74
     0
  0
LTYPE
  5
720
330
660
100
AcDbSymbolTableRecord
100
AcDbLinetypeTableRecord
  2
ACAD_ISO10W100
 70
     0
  3
ISO dash dot __ . __ . __ . __ . __ . __ . __ . 
 72
    65
 73
     4
 40
18.0
 49
12.0
 74
     0
 49
-3.0
 74
     0
 49
0.0
 74
     0
 49
-3.0
 74
     0
  0
LTYPE
  5
721
330
660
100
AcDbSymbolTableRecord
100
AcDbLinetypeTableRecord
  2
ACAD_ISO07W100
 70
     0
  3
ISO dot . . . . . . . . . . . . . . . . . . . . 
 72
    65
 73
     2
 40
3.0
 49
0.0
 74
     0
 49
-3.0
 74
     0
  0
LTYPE
  5
722
330
660
100
AcDbSymbolTableRecord
100
AcDbLinetypeTableRecord
  2
ACAD_ISO08W100
 70
     0
  3
ISO long-dash short-dash ____ __ ____ __ ____ _
 72
    65
 73
     4
 40
36.0
 49
24.0
 74
     0
 49
-3.0
 74
     0
 49
6.0
 74
     0
 49
-3.0
 74
     0
  0
LTYPE
  5
723
330
660
100
AcDbSymbolTableRecord
100
AcDbLinetypeTableRecord
  2
ACAD_ISO05W100
 70
     0
  3
ISO long-dash double-dot ____ .. ____ .. ____ . 
 72
    65
 73
     6
 40
33.0
 49
24.0
 74
     0
 49
-3.0
 74
     0
 49
0.0
 74
     0
 49
-3.0
 74
     0
 49
0.0
 74
     0
 49
-3.0
 74
     0
  0
LTYPE
  5
724
330
660
100
AcDbSymbolTableRecord
100
AcDbLinetypeTableRecord
  2
ACAD_ISO06W100
 70
     0
  3
ISO long-dash triple-dot ____ ... ____ ... ____
 72
    65
 73
     8
 40
36.0
 49
24.0
 74
     0
 49
-3.0
 74
     0
 49
0.0
 74
     0
 49
-3.0
 74
     0
 49
0.0
 74
     0
 49
-3.0
 74
     0
 49
0.0
 74
     0
 49
-3.0
 74
     0
  0
LTYPE
  5
725
330
660
100
AcDbSymbolTableRecord
100
AcDbLinetypeTableRecord
  2
ACAD_ISO03W100
 70
     0
  3
ISO dash space __    __    __    __    __    __
 72
    65
 73
     2
 40
30.0
 49
12.0
 74
     0
 49
-18.0
 74
     0
  0
LTYPE
  5
726
330
660
100
AcDbSymbolTableRecord
100
AcDbLinetypeTableRecord
  2
ACAD_ISO04W100
 70
     0
  3
ISO long-dash dot ____ . ____ . ____ . ____ . _
 72
    65
 73
     4
 40
30.0
 49
24.0
 74
     0
 49
-3.0
 74
     0
 49
0.0
 74
     0
 49
-3.0
 74
     0
  0
LTYPE
  5
727
330
660
100
AcDbSymbolTableRecord
100
AcDbLinetypeTableRecord
  2
ACAD_ISO02W100
 70
     0
  3
ISO dash __ __ __ __ __ __ __ __ __ __ __ __ __
 72
    65
 73
     2
 40
15.0
 49
12.0
 74
     0
 49
-3.0
 74
     0
  0
LTYPE
  5
728
330
660
100
AcDbSymbolTableRecord
100
AcDbLinetypeTableRecord
  2
DASHED2
 70
     0
  3
Dashed (.5x) _ _ _ _ _ _ _ _ _ _ _ _ _ _ _ _ _ 
 72
    65
 73
     2
 40
9.524999999999999
 49
6.35
 74
     0
 49
-3.175
 74
     0
  0
LTYPE
  5
729
330
660
100
AcDbSymbolTableRecord
100
AcDbLinetypeTableRecord
  2
DASHEDX2
 70
     0
  3
Dashed (2x) ____  ____  ____  ____  ____  ___
 72
    65
 73
     2
 40
38.09999999999999
 49
25.4
 74
     0
 49
-12.7
 74
     0
  0
LTYPE
  5
72A
330
660
100
AcDbSymbolTableRecord
100
AcDbLinetypeTableRecord
  2
DASHDOTX2
 70
     0
  3
Dash dot (2x) ____  .  ____  .  ____  .  ___
 72
    65
 73
     4
 40
50.8
 49
25.4
 74
     0
 49
-12.7
 74
     0
 49
0.0
 74
     0
 49
-12.7
 74
     0
  0
LTYPE
  5
72B
330
660
100
AcDbSymbolTableRecord
100
AcDbLinetypeTableRecord
  2
DASHED
 70
     0
  3
Dashed __ __ __ __ __ __ __ __ __ __ __ __ __ _
 72
    65
 73
     2
 40
19.05
 49
12.7
 74
     0
 49
-6.35
 74
     0
  0
LTYPE
  5
72C
330
660
100
AcDbSymbolTableRecord
100
AcDbLinetypeTableRecord
  2
DASHDOT
 70
     0
  3
Dash dot __ . __ . __ . __ . __ . __ . __ . __
 72
    65
 73
     4
 40
25.4
 49
12.7
 74
     0
 49
-6.35
 74
     0
 49
0.0
 74
     0
 49
-6.35
 74
     0
  0
LTYPE
  5
72D
330
660
100
AcDbSymbolTableRecord
100
AcDbLinetypeTableRecord
  2
DASHDOT2
 70
     0
  3
Dash dot (.5x) _._._._._._._._._._._._._._._.
 72
    65
 73
     4
 40
12.7
 49
6.35
 74
     0
 49
-3.175
 74
     0
 49
0.0
 74
     0
 49
-3.175
 74
     0
  0
LTYPE
  5
72E
330
660
100
AcDbSymbolTableRecord
100
AcDbLinetypeTableRecord
  2
CENTER2
 70
     0
  3
Center (.5x) ___ _ ___ _ ___ _ ___ _ ___ _ ___
 72
    65
 73
     4
 40
28.575
 49
19.05
 74
     0
 49
-3.175
 74
     0
 49
3.175
 74
     0
 49
-3.175
 74
     0
  0
LTYPE
  5
72F
330
660
100
AcDbSymbolTableRecord
100
AcDbLinetypeTableRecord
  2
CENTERX2
 70
     0
  3
Center (2x) ________  __  ________  __  _____
 72
    65
 73
     4
 40
101.6
 49
63.5
 74
     0
 49
-12.7
 74
     0
 49
12.7
 74
     0
 49
-12.7
 74
     0
  0
LTYPE
  5
730
330
660
100
AcDbSymbolTableRecord
100
AcDbLinetypeTableRecord
  2
BORDERX2
 70
     0
  3
Border (2x) ____  ____  .  ____  ____  .  ___
 72
    65
 73
     6
 40
88.89999999999999
 49
25.4
 74
     0
 49
-12.7
 74
     0
 49
25.4
 74
     0
 49
-12.7
 74
     0
 49
0.0
 74
     0
 49
-12.7
 74
     0
  0
LTYPE
  5
731
330
660
100
AcDbSymbolTableRecord
100
AcDbLinetypeTableRecord
  2
CENTER
 70
     0
  3
Center ____ _ ____ _ ____ _ ____ _ ____ _ ____
 72
    65
 73
     4
 40
50.8
 49
31.75
 74
     0
 49
-6.35
 74
     0
 49
6.35
 74
     0
 49
-6.35
 74
     0
  0
LTYPE
  5
732
330
660
100
AcDbSymbolTableRecord
100
AcDbLinetypeTableRecord
  2
BORDER
 70
     0
  3
Border __ __ . __ __ . __ __ . __ __ . __ __ .
 72
    65
 73
     6
 40
44.45
 49
12.7
 74
     0
 49
-6.35
 74
     0
 49
12.7
 74
     0
 49
-6.35
 74
     0
 49
0.0
 74
     0
 49
-6.35
 74
     0
  0
LTYPE
  5
733
330
660
100
AcDbSymbolTableRecord
100
AcDbLinetypeTableRecord
  2
BORDER2
 70
     0
  3
Border (.5x) __.__.__.__.__.__.__.__.__.__.__.
 72
    65
 73
     6
 40
22.225
 49
6.35
 74
     0
 49
-3.175
 74
     0
 49
6.35
 74
     0
 49
-3.175
 74
     0
 49
0.0
 74
     0
 49
-3.175
 74
     0
  0
ENDTAB
  0
TABLE
  2
LAYER
  5
65D
330
0
100
AcDbSymbolTable
 70
     2
  0
LAYER
  5
66B
330
65D
100
AcDbSymbolTableRecord
100
AcDbLayerTableRecord
  2
0
 70
     0
 62
     7
  6
CONTINUOUS
  0
LAYER
  5
734
330
65D
100
AcDbSymbolTableRecord
100
AcDbLayerTableRecord
  2
GTS
 70
     0
 62
     1
  6
CONTINUOUS
  0
ENDTAB
  0
TABLE
  2
STYLE
  5
65E
330
0
100
AcDbSymbolTable
 70
    13
  0
STYLE
  5
66C
330
65E
100
AcDbSymbolTableRecord
100
AcDbTextStyleTableRecord
  2
STANDARD
 70
     0
 40
0.0
 41
1.0
 50
0.0
 71
     0
 42
0.2
  3
txt
  4

  0
STYLE
  5
6F8
330
65E
100
AcDbSymbolTableRecord
100
AcDbTextStyleTableRecord
  2
QCADDIMTEXTSTYLE
 70
     0
 40
0.0
 41
1.0
 50
0.0
 71
     0
 42
0.2
  3

  4

  0
STYLE
  5
6FB
330
65E
100
AcDbSymbolTableRecord
100
AcDbTextStyleTableRecord
  2
TEXTSTYLE0
 70
     0
 40
0.0
 41
1.0
 50
0.0
 71
     0
 42
0.2
  3
ltypeshp.shx
  4

  0
STYLE
  5
6FC
330
65E
100
AcDbSymbolTableRecord
100
AcDbTextStyleTableRecord
  2
TEXTSTYLE1
 70
     0
 40
0.0
 41
1.0
 50
0.0
 71
     0
 42
0.2
  3
ltypeshp.shx
  4

  0
STYLE
  5
700
330
65E
100
AcDbSymbolTableRecord
100
AcDbTextStyleTableRecord
  2
TEXTSTYLE2
 70
     0
 40
0.0
 41
1.0
 50
0.0
 71
     0
 42
0.2
  3
STANDARD
  4

  0
STYLE
  5
705
330
65E
100
AcDbSymbolTableRecord
100
AcDbTextStyleTableRecord
  2
TEXTSTYLE3
 70
     0
 40
0.0
 41
1.0
 50
0.0
 71
     0
 42
0.2
  3
STANDARD
  4

  0
STYLE
  5
708
330
65E
100
AcDbSymbolTableRecord
100
AcDbTextStyleTableRecord
  2
TEXTSTYLE4
 70
     0
 40
0.0
 41
1.0
 50
0.0
 71
     0
 42
0.2
  3
ltypeshp.shx
  4

  0
STYLE
  5
70A
330
65E
100
AcDbSymbolTableRecord
100
AcDbTextStyleTableRecord
  2
TEXTSTYLE5
 70
     0
 40
0.0
 41
1.0
 50
0.0
 71
     0
 42
0.2
  3
ltypeshp.shx
  4

  0
STYLE
  5
70C
330
65E
100
AcDbSymbolTableRecord
100
AcDbTextStyleTableRecord
  2
TEXTSTYLE6
 70
     0
 40
0.0
 41
1.0
 50
0.0
 71
     0
 42
0.2
  3
qcadshp.shx
  4

  0
STYLE
  5
70E
330
65E
100
AcDbSymbolTableRecord
100
AcDbTextStyleTableRecord
  2
TEXTSTYLE7
 70
     0
 40
0.0
 41
1.0
 50
0.0
 71
     0
 42
0.2
  3
qcadshp.shx
  4

  0
STYLE
  5
716
330
65E
100
AcDbSymbolTableRecord
100
AcDbTextStyleTableRecord
  2
TEXTSTYLE8
 70
     0
 40
0.0
 41
1.0
 50
0.0
 71
     0
 42
0.2
  3
ltypeshp.shx
  4

  0
STYLE
  5
718
330
65E
100
AcDbSymbolTableRecord
100
AcDbTextStyleTableRecord
  2
TEXTSTYLE9
 70
     0
 40
0.0
 41
1.0
 50
0.0
 71
     0
 42
0.2
  3
ltypeshp.shx
  4

  0
STYLE
  5
719
330
65E
100
AcDbSymbolTableRecord
100
AcDbTextStyleTableRecord
  2
TEXTSTYLE10
 70
     0
 40
0.0
 41
1.0
 50
0.0
 71
     0
 42
0.2
  3
ltypeshp.shx
  4

  0
ENDTAB
  0
TABLE
  2
VIEW
  5
661
330
0
100
AcDbSymbolTable
 70
     0
  0
ENDTAB
  0
TABLE
  2
UCS
  5
662
330
0
100
AcDbSymbolTable
 70
     0
  0
ENDTAB
  0
TABLE
  2
APPID
  5
664
330
0
100
AcDbSymbolTable
 70
     3
  0
APPID
  5
66D
330
664
100
AcDbSymbolTableRecord
100
AcDbRegAppTableRecord
  2
ACAD
 70
     0
  0
APPID
  5
6C8
330
664
100
AcDbSymbolTableRecord
100
AcDbRegAppTableRecord
  2
QCAD
 70
     0
  0
APPID
  5
90B
330
664
100
AcDbSymbolTableRecord
100
AcDbRegAppTableRecord
  2
ACAD_MLEADERVER
 70
     0
  0
ENDTAB
  0
TABLE
  2
DIMSTYLE
  5
665
330
0
100
AcDbSymbolTable
 70
     2
  0
DIMSTYLE
105
681
330
665
100
AcDbSymbolTableRecord
100
AcDbDimStyleTableRecord
  2
STANDARD
 70
     0
  3

  4

  5

  6

  7

 40
1.0
 41
0.18
 42
0.0625
 43
0.38
 44
0.18
 45
0.0
 46
0.0
 47
0.0
 48
0.0
140
0.18
141
0.09
142
0.0
143
25.4
144
1.0
145
0.0
146
1.0
147
0.09
 71
     0
 72
     0
 73
     1
 74
     1
 75
     0
 76
     0
 77
     0
 78
     0
170
     0
171
     2
172
     0
173
     0
174
     0
175
     0
176
     0
177
     0
178
     0
270
     2
271
     4
272
     4
273
     2
274
     2
340
66C
275
     0
280
     0
281
     0
282
     0
283
     1
284
     0
285
     0
286
     0
287
     3
288
     0
  0
DIMSTYLE
105
6F9
330
665
100
AcDbSymbolTableRecord
100
AcDbDimStyleTableRecord
  2
QCADDIMSTYLE
 70
     0
  3

  4

  5

  6

  7

 40
1.0
 41
0.18
 42
0.0625
 43
0.38
 44
0.18
 45
0.0
 46
0.0
 47
0.0
 48
0.0
140
0.18
141
0.09
142
0.0
143
25.4
144
1.0
145
0.0
146
1.0
147
0.09
 71
     0
 72
     0
 73
     0
 74
     1
 75
     0
 76
     0
 77
     1
 78
     0
170
     0
171
     2
172
     0
173
     0
174
     0
175
     0
176
     0
177
     0
178
     0
270
     2
271
     4
272
     4
273
     2
274
     2
340
6F8
275
     0
280
     0
281
     0
282
     0
283
     1
284
     0
285
     0
286
     0
287
     3
288
     0
  0
ENDTAB
  0
TABLE
  2
BLOCK_RECORD
  5
65C
330
0
100
AcDbSymbolTable
 70
    67
  0
BLOCK_RECORD
  5
679
330
65C
100
AcDbSymbolTableRecord
100
AcDbBlockTableRecord
  2
*MODEL_SPACE
  0
BLOCK_RECORD
  5
675
330
65C
100
AcDbSymbolTableRecord
100
AcDbBlockTableRecord
  2
*PAPER_SPACE
  0
BLOCK_RECORD
  5
735
330
65C
100
AcDbSymbolTableRecord
100
AcDbBlockTableRecord
  2
D25
  0
BLOCK_RECORD
  5
738
330
65C
100
AcDbSymbolTableRecord
100
AcDbBlockTableRecord
  2
D26
  0
BLOCK_RECORD
  5
73B
330
65C
100
AcDbSymbolTableRecord
100
AcDbBlockTableRecord
  2
D23
  0
BLOCK_RECORD
  5
73E
330
65C
100
AcDbSymbolTableRecord
100
AcDbBlockTableRecord
  2
D24
  0
BLOCK_RECORD
  5
741
330
65C
100
AcDbSymbolTableRecord
100
AcDbBlockTableRecord
  2
D21
  0
BLOCK_RECORD
  5
744
330
65C
100
AcDbSymbolTableRecord
100
AcDbBlockTableRecord
  2
D22
  0
BLOCK_RECORD
  5
747
330
65C
100
AcDbSymbolTableRecord
100
AcDbBlockTableRecord
  2
D19
  0
BLOCK_RECORD
  5
74A
330
65C
100
AcDbSymbolTableRecord
100
AcDbBlockTableRecord
  2
D20
  0
BLOCK_RECORD
  5
74D
330
65C
100
AcDbSymbolTableRecord
100
AcDbBlockTableRecord
  2
D49
  0
BLOCK_RECORD
  5
750
330
65C
100
AcDbSymbolTableRecord
100
AcDbBlockTableRecord
  2
D50
  0
BLOCK_RECORD
  5
753
330
65C
100
AcDbSymbolTableRecord
100
AcDbBlockTableRecord
  2
D47
  0
BLOCK_RECORD
  5
756
330
65C
100
AcDbSymbolTableRecord
100
AcDbBlockTableRecord
  2
D48
  0
BLOCK_RECORD
  5
759
330
65C
100
AcDbSymbolTableRecord
100
AcDbBlockTableRecord
  2
D45
  0
BLOCK_RECORD
  5
75C
330
65C
100
AcDbSymbolTableRecord
100
AcDbBlockTableRecord
  2
D46
  0
BLOCK_RECORD
  5
75F
330
65C
100
AcDbSymbolTableRecord
100
AcDbBlockTableRecord
  2
D43
  0
BLOCK_RECORD
  5
762
330
65C
100
AcDbSymbolTableRecord
100
AcDbBlockTableRecord
  2
D44
  0
BLOCK_RECORD
  5
765
330
65C
100
AcDbSymbolTableRecord
100
AcDbBlockTableRecord
  2
D41
  0
BLOCK_RECORD
  5
768
330
65C
100
AcDbSymbolTableRecord
100
AcDbBlockTableRecord
  2
D42
  0
BLOCK_RECORD
  5
76B
330
65C
100
AcDbSymbolTableRecord
100
AcDbBlockTableRecord
  2
D39
  0
BLOCK_RECORD
  5
76E
330
65C
100
AcDbSymbolTableRecord
100
AcDbBlockTableRecord
  2
D40
  0
BLOCK_RECORD
  5
771
330
65C
100
AcDbSymbolTableRecord
100
AcDbBlockTableRecord
  2
D37
  0
BLOCK_RECORD
  5
774
330
65C
100
AcDbSymbolTableRecord
100
AcDbBlockTableRecord
  2
D38
  0
BLOCK_RECORD
  5
777
330
65C
100
AcDbSymbolTableRecord
100
AcDbBlockTableRecord
  2
D35
  0
BLOCK_RECORD
  5
77A
330
65C
100
AcDbSymbolTableRecord
100
AcDbBlockTableRecord
  2
D36
  0
BLOCK_RECORD
  5
77D
330
65C
100
AcDbSymbolTableRecord
100
AcDbBlockTableRecord
  2
D65
  0
BLOCK_RECORD
  5
780
330
65C
100
AcDbSymbolTableRecord
100
AcDbBlockTableRecord
  2
D66
  0
BLOCK_RECORD
  5
783
330
65C
100
AcDbSymbolTableRecord
100
AcDbBlockTableRecord
  2
D63
  0
BLOCK_RECORD
  5
786
330
65C
100
AcDbSymbolTableRecord
100
AcDbBlockTableRecord
  2
D64
  0
BLOCK_RECORD
  5
789
330
65C
100
AcDbSymbolTableRecord
100
AcDbBlockTableRecord
  2
D61
  0
BLOCK_RECORD
  5
78C
330
65C
100
AcDbSymbolTableRecord
100
AcDbBlockTableRecord
  2
D62
  0
BLOCK_RECORD
  5
78F
330
65C
100
AcDbSymbolTableRecord
100
AcDbBlockTableRecord
  2
D59
  0
BLOCK_RECORD
  5
792
330
65C
100
AcDbSymbolTableRecord
100
AcDbBlockTableRecord
  2
D60
  0
BLOCK_RECORD
  5
795
330
65C
100
AcDbSymbolTableRecord
100
AcDbBlockTableRecord
  2
D57
  0
BLOCK_RECORD
  5
798
330
65C
100
AcDbSymbolTableRecord
100
AcDbBlockTableRecord
  2
D58
  0
BLOCK_RECORD
  5
79B
330
65C
100
AcDbSymbolTableRecord
100
AcDbBlockTableRecord
  2
D55
  0
BLOCK_RECORD
  5
79E
330
65C
100
AcDbSymbolTableRecord
100
AcDbBlockTableRecord
  2
D56
  0
BLOCK_RECORD
  5
7A1
330
65C
100
AcDbSymbolTableRecord
100
AcDbBlockTableRecord
  2
D53
  0
BLOCK_RECORD
  5
7A4
330
65C
100
AcDbSymbolTableRecord
100
AcDbBlockTableRecord
  2
D54
  0
BLOCK_RECORD
  5
7A7
330
65C
100
AcDbSymbolTableRecord
100
AcDbBlockTableRecord
  2
D51
  0
BLOCK_RECORD
  5
7AA
330
65C
100
AcDbSymbolTableRecord
100
AcDbBlockTableRecord
  2
D52
  0
BLOCK_RECORD
  5
7AD
330
65C
100
AcDbSymbolTableRecord
100
AcDbBlockTableRecord
  2
D75
  0
BLOCK_RECORD
  5
7B0
330
65C
100
AcDbSymbolTableRecord
100
AcDbBlockTableRecord
  2
D73
  0
BLOCK_RECORD
  5
7B3
330
65C
100
AcDbSymbolTableRecord
100
AcDbBlockTableRecord
  2
D74
  0
BLOCK_RECORD
  5
7B6
330
65C
100
AcDbSymbolTableRecord
100
AcDbBlockTableRecord
  2
D71
  0
BLOCK_RECORD
  5
7B9
330
65C
100
AcDbSymbolTableRecord
100
AcDbBlockTableRecord
  2
D72
  0
BLOCK_RECORD
  5
7BC
330
65C
100
AcDbSymbolTableRecord
100
AcDbBlockTableRecord
  2
D69
  0
BLOCK_RECORD
  5
7BF
330
65C
100
AcDbSymbolTableRecord
100
AcDbBlockTableRecord
  2
D70
  0
BLOCK_RECORD
  5
7C2
330
65C
100
AcDbSymbolTableRecord
100
AcDbBlockTableRecord
  2
D67
  0
BLOCK_RECORD
  5
7C5
330
65C
100
AcDbSymbolTableRecord
100
AcDbBlockTableRecord
  2
D68
  0
BLOCK_RECORD
  5
7C8
330
65C
100
AcDbSymbolTableRecord
100
AcDbBlockTableRecord
  2
D17
  0
BLOCK_RECORD
  5
7CB
330
65C
100
AcDbSymbolTableRecord
100
AcDbBlockTableRecord
  2
D18
  0
BLOCK_RECORD
  5
7CE
330
65C
100
AcDbSymbolTableRecord
100
AcDbBlockTableRecord
  2
D15
  0
BLOCK_RECORD
  5
7D1
330
65C
100
AcDbSymbolTableRecord
100
AcDbBlockTableRecord
  2
D16
  0
BLOCK_RECORD
  5
7D4
330
65C
100
AcDbSymbolTableRecord
100
AcDbBlockTableRecord
  2
D13
  0
BLOCK_RECORD
  5
7D7
330
65C
100
AcDbSymbolTableRecord
100
AcDbBlockTableRecord
  2
D14
  0
BLOCK_RECORD
  5
7DA
330
65C
100
AcDbSymbolTableRecord
100
AcDbBlockTableRecord
  2
D11
  0
BLOCK_RECORD
  5
7DD
330
65C
100
AcDbSymbolTableRecord
100
AcDbBlockTableRecord
  2
D12
  0
BLOCK_RECORD
  5
7E0
330
65C
100
AcDbSymbolTableRecord
100
AcDbBlockTableRecord
  2
D10
  0
BLOCK_RECORD
  5
7E3
330
65C
100
AcDbSymbolTableRecord
100
AcDbBlockTableRecord
  2
D33
  0
BLOCK_RECORD
  5
7E6
330
65C
100
AcDbSymbolTableRecord
100
AcDbBlockTableRecord
  2
D34
  0
BLOCK_RECORD
  5
7E9
330
65C
100
AcDbSymbolTableRecord
100
AcDbBlockTableRecord
  2
D31
  0
BLOCK_RECORD
  5
7EC
330
65C
100
AcDbSymbolTableRecord
100
AcDbBlockTableRecord
  2
D32
  0
BLOCK_RECORD
  5
7EF
330
65C
100
AcDbSymbolTableRecord
100
AcDbBlockTableRecord
  2
D29
  0
BLOCK_RECORD
  5
7F2
330
65C
100
AcDbSymbolTableRecord
100
AcDbBlockTableRecord
  2
D30
  0
BLOCK_RECORD
  5
7F5
330
65C
100
AcDbSymbolTableRecord
100
AcDbBlockTableRecord
  2
D27
  0
BLOCK_RECORD
  5
7F8
330
65C
100
AcDbSymbolTableRecord
100
AcDbBlockTableRecord
  2
D28
  0
ENDTAB
  0
ENDSEC
  0
SECTION
  2
BLOCKS
  0
BLOCK
  5
67A
330
679
100
AcDbEntity
  8
0
100
AcDbBlockBegin
  2
*MODEL_SPACE
 70
     0
 10
0.0
 20
0.0
 30
0.0
  3
*MODEL_SPACE
  1

  0
ENDBLK
  5
67B
330
679
100
AcDbEntity
  8
0
100
AcDbBlockEnd
  0
BLOCK
  5
676
330
675
100
AcDbEntity
 67
     1
  8
0
100
AcDbBlockBegin
  2
*PAPER_SPACE
 70
     0
 10
0.0
 20
0.0
 30
0.0
  3
*PAPER_SPACE
  1

  0
ENDBLK
  5
677
330
675
100
AcDbEntity
 67
     1
  8
0
100
AcDbBlockEnd
  0
BLOCK
  5
736
330
735
100
AcDbEntity
  8
0
100
AcDbBlockBegin
  2
D25
 70
     0
 10
0.0
 20
0.0
 30
0.0
  3
D25
  1
D25
  0
POLYLINE
  5
B2
330
735
100
AcDbEntity
  8
0
100
AcDb2dPolyline
 66
     1
 10
0.0
 20
0.0
 30
0.0
 70
     1
  0
VERTEX
  5
803
330
B2
100
AcDbEntity
  8
0
100
AcDbVertex
100
AcDb2dVertex
 10
-0.044
 20
-0.024
 30
0.0
  0
VERTEX
  5
804
330
B2
100
AcDbEntity
  8
0
100
AcDbVertex
100
AcDb2dVertex
 10
0.044
 20
-0.024
 30
0.0
  0
VERTEX
  5
805
330
B2
100
AcDbEntity
  8
0
100
AcDbVertex
100
AcDb2dVertex
 10
0.044
 20
0.024
 30
0.0
  0
VERTEX
  5
806
330
B2
100
AcDbEntity
  8
0
100
AcDbVertex
100
AcDb2dVertex
 10
-0.044
 20
0.024
 30
0.0
  0
SEQEND
  5
90C
330
B2
100
AcDbEntity
  8
0
  0
ENDBLK
  5
737
330
735
100
AcDbEntity
  8
0
100
AcDbBlockEnd
  0
BLOCK
  5
739
330
738
100
AcDbEntity
  8
0
100
AcDbBlockBegin
  2
D26
 70
     0
 10
0.0
 20
0.0
 30
0.0
  3
D26
  1
D26
  0
POLYLINE
  5
BB
330
738
100
AcDbEntity
  8
0
100
AcDb2dPolyline
 66
     1
 10
0.0
 20
0.0
 30
0.0
 70
     1
  0
VERTEX
  5
807
330
BB
100
AcDbEntity
  8
0
100
AcDbVertex
100
AcDb2dVertex
 10
-0.043305
 20
-0.070865
 30
0.0
  0
VERTEX
  5
808
330
BB
100
AcDbEntity
  8
0
100
AcDbVertex
100
AcDb2dVertex
 10
0.043305
 20
-0.070865
 30
0.0
  0
VERTEX
  5
809
330
BB
100
AcDbEntity
  8
0
100
AcDbVertex
100
AcDb2dVertex
 10
0.043305
 20
0.070865
 30
0.0
  0
VERTEX
  5
80A
330
BB
100
AcDbEntity
  8
0
100
AcDbVertex
100
AcDb2dVertex
 10
-0.043305
 20
0.070865
 30
0.0
  0
SEQEND
  5
90D
330
BB
100
AcDbEntity
  8
0
  0
ENDBLK
  5
73A
330
738
100
AcDbEntity
  8
0
100
AcDbBlockEnd
  0
BLOCK
  5
73C
330
73B
100
AcDbEntity
  8
0
100
AcDbBlockBegin
  2
D23
 70
     0
 10
0.0
 20
0.0
 30
0.0
  3
D23
  1
D23
  0
POLYLINE
  5
A0
330
73B
100
AcDbEntity
  8
0
100
AcDb2dPolyline
 66
     1
 10
0.0
 20
0.0
 30
0.0
 70
     1
  0
VERTEX
  5
80B
330
A0
100
AcDbEntity
  8
0
100
AcDbVertex
100
AcDb2dVertex
 10
-0.02362
 20
-0.005905
 30
0.0
  0
VERTEX
  5
80C
330
A0
100
AcDbEntity
  8
0
100
AcDbVertex
100
AcDb2dVertex
 10
0.02362
 20
-0.005905
 30
0.0
  0
VERTEX
  5
80D
330
A0
100
AcDbEntity
  8
0
100
AcDbVertex
100
AcDb2dVertex
 10
0.02362
 20
0.005905
 30
0.0
  0
VERTEX
  5
80E
330
A0
100
AcDbEntity
  8
0
100
AcDbVertex
100
AcDb2dVertex
 10
-0.02362
 20
0.005905
 30
0.0
  0
SEQEND
  5
90E
330
A0
100
AcDbEntity
  8
0
  0
ENDBLK
  5
73D
330
73B
100
AcDbEntity
  8
0
100
AcDbBlockEnd
  0
BLOCK
  5
73F
330
73E
100
AcDbEntity
  8
0
100
AcDbBlockBegin
  2
D24
 70
     0
 10
0.0
 20
0.0
 30
0.0
  3
D24
  1
D24
  0
POLYLINE
  5
A9
330
73E
100
AcDbEntity
  8
0
100
AcDb2dPolyline
 66
     1
 10
0.0
 20
0.0
 30
0.0
 70
     1
  0
VERTEX
  5
80F
330
A9
100
AcDbEntity
  8
0
100
AcDbVertex
100
AcDb2dVertex
 10
-0.017715
 20
-0.01181
 30
0.0
  0
VERTEX
  5
810
330
A9
100
AcDbEntity
  8
0
100
AcDbVertex
100
AcDb2dVertex
 10
0.017715
 20
-0.01181
 30
0.0
  0
VERTEX
  5
811
330
A9
100
AcDbEntity
  8
0
100
AcDbVertex
100
AcDb2dVertex
 10
0.017715
 20
0.01181
 30
0.0
  0
VERTEX
  5
812
330
A9
100
AcDbEntity
  8
0
100
AcDbVertex
100
AcDb2dVertex
 10
-0.017715
 20
0.01181
 30
0.0
  0
SEQEND
  5
90F
330
A9
100
AcDbEntity
  8
0
  0
ENDBLK
  5
740
330
73E
100
AcDbEntity
  8
0
100
AcDbBlockEnd
  0
BLOCK
  5
742
330
741
100
AcDbEntity
  8
0
100
AcDbBlockBegin
  2
D21
 70
     0
 10
0.0
 20
0.0
 30
0.0
  3
D21
  1
D21
  0
POLYLINE
  5
8E
330
741
100
AcDbEntity
  8
0
100
AcDb2dPolyline
 66
     1
 10
0.0
 20
0.0
 30
0.0
 70
     1
  0
VERTEX
  5
813
330
8E
100
AcDbEntity
  8
0
100
AcDbVertex
100
AcDb2dVertex
 10
-0.0374
 20
-0.06693
 30
0.0
  0
VERTEX
  5
814
330
8E
100
AcDbEntity
  8
0
100
AcDbVertex
100
AcDb2dVertex
 10
0.0374
 20
-0.06693
 30
0.0
  0
VERTEX
  5
815
330
8E
100
AcDbEntity
  8
0
100
AcDbVertex
100
AcDb2dVertex
 10
0.0374
 20
0.06693
 30
0.0
  0
VERTEX
  5
816
330
8E
100
AcDbEntity
  8
0
100
AcDbVertex
100
AcDb2dVertex
 10
-0.0374
 20
0.06693
 30
0.0
  0
SEQEND
  5
910
330
8E
100
AcDbEntity
  8
0
  0
ENDBLK
  5
743
330
741
100
AcDbEntity
  8
0
100
AcDbBlockEnd
  0
BLOCK
  5
745
330
744
100
AcDbEntity
  8
0
100
AcDbBlockBegin
  2
D22
 70
     0
 10
0.0
 20
0.0
 30
0.0
  3
D22
  1
D22
  0
POLYLINE
  5
97
330
744
100
AcDbEntity
  8
0
100
AcDb2dPolyline
 66
     1
 10
0.0
 20
0.0
 30
0.0
 70
     1
  0
VERTEX
  5
817
330
97
100
AcDbEntity
  8
0
100
AcDbVertex
100
AcDb2dVertex
 10
-0.06693
 20
-0.0374
 30
0.0
  0
VERTEX
  5
818
330
97
100
AcDbEntity
  8
0
100
AcDbVertex
100
AcDb2dVertex
 10
0.06693
 20
-0.0374
 30
0.0
  0
VERTEX
  5
819
330
97
100
AcDbEntity
  8
0
100
AcDbVertex
100
AcDb2dVertex
 10
0.06693
 20
0.0374
 30
0.0
  0
VERTEX
  5
81A
330
97
100
AcDbEntity
  8
0
100
AcDbVertex
100
AcDb2dVertex
 10
-0.06693
 20
0.0374
 30
0.0
  0
SEQEND
  5
911
330
97
100
AcDbEntity
  8
0
  0
ENDBLK
  5
746
330
744
100
AcDbEntity
  8
0
100
AcDbBlockEnd
  0
BLOCK
  5
748
330
747
100
AcDbEntity
  8
0
100
AcDbBlockBegin
  2
D19
 70
     0
 10
0.0
 20
0.0
 30
0.0
  3
D19
  1
D19
  0
POLYLINE
  5
7C
330
747
100
AcDbEntity
  8
0
100
AcDb2dPolyline
 66
     1
 10
0.0
 20
0.0
 30
0.0
 70
     1
  0
VERTEX
  5
81B
330
7C
100
AcDbEntity
  8
0
100
AcDbVertex
100
AcDb2dVertex
 10
-0.015
 20
-0.025
 30
0.0
  0
VERTEX
  5
81C
330
7C
100
AcDbEntity
  8
0
100
AcDbVertex
100
AcDb2dVertex
 10
0.015
 20
-0.025
 30
0.0
  0
VERTEX
  5
81D
330
7C
100
AcDbEntity
  8
0
100
AcDbVertex
100
AcDb2dVertex
 10
0.015
 20
0.025
 30
0.0
  0
VERTEX
  5
81E
330
7C
100
AcDbEntity
  8
0
100
AcDbVertex
100
AcDb2dVertex
 10
-0.015
 20
0.025
 30
0.0
  0
SEQEND
  5
912
330
7C
100
AcDbEntity
  8
0
  0
ENDBLK
  5
749
330
747
100
AcDbEntity
  8
0
100
AcDbBlockEnd
  0
BLOCK
  5
74B
330
74A
100
AcDbEntity
  8
0
100
AcDbBlockBegin
  2
D20
 70
     0
 10
0.0
 20
0.0
 30
0.0
  3
D20
  1
D20
  0
POLYLINE
  5
85
330
74A
100
AcDbEntity
  8
0
100
AcDb2dPolyline
 66
     1
 10
0.0
 20
0.0
 30
0.0
 70
     1
  0
VERTEX
  5
81F
330
85
100
AcDbEntity
  8
0
100
AcDbVertex
100
AcDb2dVertex
 10
-0.02
 20
-0.039
 30
0.0
  0
VERTEX
  5
820
330
85
100
AcDbEntity
  8
0
100
AcDbVertex
100
AcDb2dVertex
 10
0.02
 20
-0.039
 30
0.0
  0
VERTEX
  5
821
330
85
100
AcDbEntity
  8
0
100
AcDbVertex
100
AcDb2dVertex
 10
0.02
 20
0.039
 30
0.0
  0
VERTEX
  5
822
330
85
100
AcDbEntity
  8
0
100
AcDbVertex
100
AcDb2dVertex
 10
-0.02
 20
0.039
 30
0.0
  0
SEQEND
  5
913
330
85
100
AcDbEntity
  8
0
  0
ENDBLK
  5
74C
330
74A
100
AcDbEntity
  8
0
100
AcDbBlockEnd
  0
BLOCK
  5
74E
330
74D
100
AcDbEntity
  8
0
100
AcDbBlockBegin
  2
D49
 70
     0
 10
0.0
 20
0.0
 30
0.0
  3
D49
  1
D49
  0
POLYLINE
  5
185
330
74D
100
AcDbEntity
  8
0
100
AcDb2dPolyline
 66
     1
 10
0.0
 20
0.0
 30
0.0
 70
     1
  0
VERTEX
  5
823
330
185
100
AcDbEntity
  8
0
100
AcDbVertex
100
AcDb2dVertex
 10
-0.026575
 20
-0.007875
 30
0.0
  0
VERTEX
  5
824
330
185
100
AcDbEntity
  8
0
100
AcDbVertex
100
AcDb2dVertex
 10
0.026575
 20
-0.007875
 30
0.0
  0
VERTEX
  5
825
330
185
100
AcDbEntity
  8
0
100
AcDbVertex
100
AcDb2dVertex
 10
0.026575
 20
0.007875
 30
0.0
  0
VERTEX
  5
826
330
185
100
AcDbEntity
  8
0
100
AcDbVertex
100
AcDb2dVertex
 10
-0.026575
 20
0.007875
 30
0.0
  0
SEQEND
  5
914
330
185
100
AcDbEntity
  8
0
  0
ENDBLK
  5
74F
330
74D
100
AcDbEntity
  8
0
100
AcDbBlockEnd
  0
BLOCK
  5
751
330
750
100
AcDbEntity
  8
0
100
AcDbBlockBegin
  2
D50
 70
     0
 10
0.0
 20
0.0
 30
0.0
  3
D50
  1
D50
  0
POLYLINE
  5
18E
330
750
100
AcDbEntity
  8
0
100
AcDb2dPolyline
 66
     1
 10
0.0
 20
0.0
 30
0.0
 70
     1
  0
VERTEX
  5
827
330
18E
100
AcDbEntity
  8
0
100
AcDbVertex
100
AcDb2dVertex
 10
-0.03937
 20
-0.057085
 30
0.0
  0
VERTEX
  5
828
330
18E
100
AcDbEntity
  8
0
100
AcDbVertex
100
AcDb2dVertex
 10
0.03937
 20
-0.057085
 30
0.0
  0
VERTEX
  5
829
330
18E
100
AcDbEntity
  8
0
100
AcDbVertex
100
AcDb2dVertex
 10
0.03937
 20
0.057085
 30
0.0
  0
VERTEX
  5
82A
330
18E
100
AcDbEntity
  8
0
100
AcDbVertex
100
AcDb2dVertex
 10
-0.03937
 20
0.057085
 30
0.0
  0
SEQEND
  5
915
330
18E
100
AcDbEntity
  8
0
  0
ENDBLK
  5
752
330
750
100
AcDbEntity
  8
0
100
AcDbBlockEnd
  0
BLOCK
  5
754
330
753
100
AcDbEntity
  8
0
100
AcDbBlockBegin
  2
D47
 70
     0
 10
0.0
 20
0.0
 30
0.0
  3
D47
  1
D47
  0
POLYLINE
  5
178
330
753
100
AcDbEntity
  8
0
100
AcDb2dPolyline
 66
     1
 10
0.0
 20
0.0
 30
0.0
 70
     1
  0
VERTEX
  5
82B
330
178
100
AcDbEntity
  8
0
100
AcDbVertex
100
AcDb2dVertex
 10
-0.019685
 20
-0.019685
 30
0.0
  0
VERTEX
  5
82C
330
178
100
AcDbEntity
  8
0
100
AcDbVertex
100
AcDb2dVertex
 10
0.019685
 20
-0.019685
 30
0.0
  0
VERTEX
  5
82D
330
178
100
AcDbEntity
  8
0
100
AcDbVertex
100
AcDb2dVertex
 10
0.019685
 20
0.019685
 30
0.0
  0
VERTEX
  5
82E
330
178
100
AcDbEntity
  8
0
100
AcDbVertex
100
AcDb2dVertex
 10
-0.019685
 20
0.019685
 30
0.0
  0
SEQEND
  5
916
330
178
100
AcDbEntity
  8
0
  0
ENDBLK
  5
755
330
753
100
AcDbEntity
  8
0
100
AcDbBlockEnd
  0
BLOCK
  5
757
330
756
100
AcDbEntity
  8
0
100
AcDbBlockBegin
  2
D48
 70
     0
 10
0.0
 20
0.0
 30
0.0
  3
D48
  1
D48
  0
CIRCLE
  5
181
330
756
100
AcDbEntity
  8
0
100
AcDbCircle
 10
0.0
 20
0.0
 30
0.0
 40
0.06299
  0
ENDBLK
  5
758
330
756
100
AcDbEntity
  8
0
100
AcDbBlockEnd
  0
BLOCK
  5
75A
330
759
100
AcDbEntity
  8
0
100
AcDbBlockBegin
  2
D45
 70
     0
 10
0.0
 20
0.0
 30
0.0
  3
D45
  1
D45
  0
POLYLINE
  5
166
330
759
100
AcDbEntity
  8
0
100
AcDb2dPolyline
 66
     1
 10
0.0
 20
0.0
 30
0.0
 70
     1
  0
VERTEX
  5
82F
330
166
100
AcDbEntity
  8
0
100
AcDbVertex
100
AcDb2dVertex
 10
-0.02559
 20
-0.02067
 30
0.0
  0
VERTEX
  5
830
330
166
100
AcDbEntity
  8
0
100
AcDbVertex
100
AcDb2dVertex
 10
0.02559
 20
-0.02067
 30
0.0
  0
VERTEX
  5
831
330
166
100
AcDbEntity
  8
0
100
AcDbVertex
100
AcDb2dVertex
 10
0.02559
 20
0.02067
 30
0.0
  0
VERTEX
  5
832
330
166
100
AcDbEntity
  8
0
100
AcDbVertex
100
AcDb2dVertex
 10
-0.02559
 20
0.02067
 30
0.0
  0
SEQEND
  5
917
330
166
100
AcDbEntity
  8
0
  0
ENDBLK
  5
75B
330
759
100
AcDbEntity
  8
0
100
AcDbBlockEnd
  0
BLOCK
  5
75D
330
75C
100
AcDbEntity
  8
0
100
AcDbBlockBegin
  2
D46
 70
     0
 10
0.0
 20
0.0
 30
0.0
  3
D46
  1
D46
  0
POLYLINE
  5
16F
330
75C
100
AcDbEntity
  8
0
100
AcDb2dPolyline
 66
     1
 10
0.0
 20
0.0
 30
0.0
 70
     1
  0
VERTEX
  5
833
330
16F
100
AcDbEntity
  8
0
100
AcDbVertex
100
AcDb2dVertex
 10
-0.019685
 20
-0.019685
 30
0.0
  0
VERTEX
  5
834
330
16F
100
AcDbEntity
  8
0
100
AcDbVertex
100
AcDb2dVertex
 10
0.019685
 20
-0.019685
 30
0.0
  0
VERTEX
  5
835
330
16F
100
AcDbEntity
  8
0
100
AcDbVertex
100
AcDb2dVertex
 10
0.019685
 20
0.019685
 30
0.0
  0
VERTEX
  5
836
330
16F
100
AcDbEntity
  8
0
100
AcDbVertex
100
AcDb2dVertex
 10
-0.019685
 20
0.019685
 30
0.0
  0
SEQEND
  5
918
330
16F
100
AcDbEntity
  8
0
  0
ENDBLK
  5
75E
330
75C
100
AcDbEntity
  8
0
100
AcDbBlockEnd
  0
BLOCK
  5
760
330
75F
100
AcDbEntity
  8
0
100
AcDbBlockBegin
  2
D43
 70
     0
 10
0.0
 20
0.0
 30
0.0
  3
D43
  1
D43
  0
POLYLINE
  5
154
330
75F
100
AcDbEntity
  8
0
100
AcDb2dPolyline
 66
     1
 10
0.0
 20
0.0
 30
0.0
 70
     1
  0
VERTEX
  5
837
330
154
100
AcDbEntity
  8
0
100
AcDbVertex
100
AcDb2dVertex
 10
-0.02067
 20
-0.02559
 30
0.0
  0
VERTEX
  5
838
330
154
100
AcDbEntity
  8
0
100
AcDbVertex
100
AcDb2dVertex
 10
0.02067
 20
-0.02559
 30
0.0
  0
VERTEX
  5
839
330
154
100
AcDbEntity
  8
0
100
AcDbVertex
100
AcDb2dVertex
 10
0.02067
 20
0.02559
 30
0.0
  0
VERTEX
  5
83A
330
154
100
AcDbEntity
  8
0
100
AcDbVertex
100
AcDb2dVertex
 10
-0.02067
 20
0.02559
 30
0.0
  0
SEQEND
  5
919
330
154
100
AcDbEntity
  8
0
  0
ENDBLK
  5
761
330
75F
100
AcDbEntity
  8
0
100
AcDbBlockEnd
  0
BLOCK
  5
763
330
762
100
AcDbEntity
  8
0
100
AcDbBlockBegin
  2
D44
 70
     0
 10
0.0
 20
0.0
 30
0.0
  3
D44
  1
D44
  0
POLYLINE
  5
15D
330
762
100
AcDbEntity
  8
0
100
AcDb2dPolyline
 66
     1
 10
0.0
 20
0.0
 30
0.0
 70
     1
  0
VERTEX
  5
83B
330
15D
100
AcDbEntity
  8
0
100
AcDbVertex
100
AcDb2dVertex
 10
-0.035435
 20
-0.021655
 30
0.0
  0
VERTEX
  5
83C
330
15D
100
AcDbEntity
  8
0
100
AcDbVertex
100
AcDb2dVertex
 10
0.035435
 20
-0.021655
 30
0.0
  0
VERTEX
  5
83D
330
15D
100
AcDbEntity
  8
0
100
AcDbVertex
100
AcDb2dVertex
 10
0.035435
 20
0.021655
 30
0.0
  0
VERTEX
  5
83E
330
15D
100
AcDbEntity
  8
0
100
AcDbVertex
100
AcDb2dVertex
 10
-0.035435
 20
0.021655
 30
0.0
  0
SEQEND
  5
91A
330
15D
100
AcDbEntity
  8
0
  0
ENDBLK
  5
764
330
762
100
AcDbEntity
  8
0
100
AcDbBlockEnd
  0
BLOCK
  5
766
330
765
100
AcDbEntity
  8
0
100
AcDbBlockBegin
  2
D41
 70
     0
 10
0.0
 20
0.0
 30
0.0
  3
D41
  1
D41
  0
POLYLINE
  5
142
330
765
100
AcDbEntity
  8
0
100
AcDb2dPolyline
 66
     1
 10
0.0
 20
0.0
 30
0.0
 70
     1
  0
VERTEX
  5
83F
330
142
100
AcDbEntity
  8
0
100
AcDbVertex
100
AcDb2dVertex
 10
-0.005905
 20
-0.02362
 30
0.0
  0
VERTEX
  5
840
330
142
100
AcDbEntity
  8
0
100
AcDbVertex
100
AcDb2dVertex
 10
0.005905
 20
-0.02362
 30
0.0
  0
VERTEX
  5
841
330
142
100
AcDbEntity
  8
0
100
AcDbVertex
100
AcDb2dVertex
 10
0.005905
 20
0.02362
 30
0.0
  0
VERTEX
  5
842
330
142
100
AcDbEntity
  8
0
100
AcDbVertex
100
AcDb2dVertex
 10
-0.005905
 20
0.02362
 30
0.0
  0
SEQEND
  5
91B
330
142
100
AcDbEntity
  8
0
  0
ENDBLK
  5
767
330
765
100
AcDbEntity
  8
0
100
AcDbBlockEnd
  0
BLOCK
  5
769
330
768
100
AcDbEntity
  8
0
100
AcDbBlockBegin
  2
D42
 70
     0
 10
0.0
 20
0.0
 30
0.0
  3
D42
  1
D42
  0
POLYLINE
  5
14B
330
768
100
AcDbEntity
  8
0
100
AcDb2dPolyline
 66
     1
 10
0.0
 20
0.0
 30
0.0
 70
     1
  0
VERTEX
  5
843
330
14B
100
AcDbEntity
  8
0
100
AcDbVertex
100
AcDb2dVertex
 10
-0.02362
 20
-0.005905
 30
0.0
  0
VERTEX
  5
844
330
14B
100
AcDbEntity
  8
0
100
AcDbVertex
100
AcDb2dVertex
 10
0.02362
 20
-0.005905
 30
0.0
  0
VERTEX
  5
845
330
14B
100
AcDbEntity
  8
0
100
AcDbVertex
100
AcDb2dVertex
 10
0.02362
 20
0.005905
 30
0.0
  0
VERTEX
  5
846
330
14B
100
AcDbEntity
  8
0
100
AcDbVertex
100
AcDb2dVertex
 10
-0.02362
 20
0.005905
 30
0.0
  0
SEQEND
  5
91C
330
14B
100
AcDbEntity
  8
0
  0
ENDBLK
  5
76A
330
768
100
AcDbEntity
  8
0
100
AcDbBlockEnd
  0
BLOCK
  5
76C
330
76B
100
AcDbEntity
  8
0
100
AcDbBlockBegin
  2
D39
 70
     0
 10
0.0
 20
0.0
 30
0.0
  3
D39
  1
D39
  0
POLYLINE
  5
130
330
76B
100
AcDbEntity
  8
0
100
AcDb2dPolyline
 66
     1
 10
0.0
 20
0.0
 30
0.0
 70
     1
  0
VERTEX
  5
847
330
130
100
AcDbEntity
  8
0
100
AcDbVertex
100
AcDb2dVertex
 10
-0.012795
 20
-0.009845
 30
0.0
  0
VERTEX
  5
848
330
130
100
AcDbEntity
  8
0
100
AcDbVertex
100
AcDb2dVertex
 10
0.012795
 20
-0.009845
 30
0.0
  0
VERTEX
  5
849
330
130
100
AcDbEntity
  8
0
100
AcDbVertex
100
AcDb2dVertex
 10
0.012795
 20
0.009845
 30
0.0
  0
VERTEX
  5
84A
330
130
100
AcDbEntity
  8
0
100
AcDbVertex
100
AcDb2dVertex
 10
-0.012795
 20
0.009845
 30
0.0
  0
SEQEND
  5
91D
330
130
100
AcDbEntity
  8
0
  0
ENDBLK
  5
76D
330
76B
100
AcDbEntity
  8
0
100
AcDbBlockEnd
  0
BLOCK
  5
76F
330
76E
100
AcDbEntity
  8
0
100
AcDbBlockBegin
  2
D40
 70
     0
 10
0.0
 20
0.0
 30
0.0
  3
D40
  1
D40
  0
POLYLINE
  5
139
330
76E
100
AcDbEntity
  8
0
100
AcDb2dPolyline
 66
     1
 10
0.0
 20
0.0
 30
0.0
 70
     1
  0
VERTEX
  5
84B
330
139
100
AcDbEntity
  8
0
100
AcDbVertex
100
AcDb2dVertex
 10
-0.0155
 20
-0.0175
 30
0.0
  0
VERTEX
  5
84C
330
139
100
AcDbEntity
  8
0
100
AcDbVertex
100
AcDb2dVertex
 10
0.0155
 20
-0.0175
 30
0.0
  0
VERTEX
  5
84D
330
139
100
AcDbEntity
  8
0
100
AcDbVertex
100
AcDb2dVertex
 10
0.0155
 20
0.0175
 30
0.0
  0
VERTEX
  5
84E
330
139
100
AcDbEntity
  8
0
100
AcDbVertex
100
AcDb2dVertex
 10
-0.0155
 20
0.0175
 30
0.0
  0
SEQEND
  5
91E
330
139
100
AcDbEntity
  8
0
  0
ENDBLK
  5
770
330
76E
100
AcDbEntity
  8
0
100
AcDbBlockEnd
  0
BLOCK
  5
772
330
771
100
AcDbEntity
  8
0
100
AcDbBlockBegin
  2
D37
 70
     0
 10
0.0
 20
0.0
 30
0.0
  3
D37
  1
D37
  0
POLYLINE
  5
11E
330
771
100
AcDbEntity
  8
0
100
AcDb2dPolyline
 66
     1
 10
0.0
 20
0.0
 30
0.0
 70
     1
  0
VERTEX
  5
84F
330
11E
100
AcDbEntity
  8
0
100
AcDbVertex
100
AcDb2dVertex
 10
-0.01
 20
-0.015
 30
0.0
  0
VERTEX
  5
850
330
11E
100
AcDbEntity
  8
0
100
AcDbVertex
100
AcDb2dVertex
 10
0.01
 20
-0.015
 30
0.0
  0
VERTEX
  5
851
330
11E
100
AcDbEntity
  8
0
100
AcDbVertex
100
AcDb2dVertex
 10
0.01
 20
0.015
 30
0.0
  0
VERTEX
  5
852
330
11E
100
AcDbEntity
  8
0
100
AcDbVertex
100
AcDb2dVertex
 10
-0.01
 20
0.015
 30
0.0
  0
SEQEND
  5
91F
330
11E
100
AcDbEntity
  8
0
  0
ENDBLK
  5
773
330
771
100
AcDbEntity
  8
0
100
AcDbBlockEnd
  0
BLOCK
  5
775
330
774
100
AcDbEntity
  8
0
100
AcDbBlockBegin
  2
D38
 70
     0
 10
0.0
 20
0.0
 30
0.0
  3
D38
  1
D38
  0
POLYLINE
  5
127
330
774
100
AcDbEntity
  8
0
100
AcDb2dPolyline
 66
     1
 10
0.0
 20
0.0
 30
0.0
 70
     1
  0
VERTEX
  5
853
330
127
100
AcDbEntity
  8
0
100
AcDbVertex
100
AcDb2dVertex
 10
-0.031495
 20
-0.02756
 30
0.0
  0
VERTEX
  5
854
330
127
100
AcDbEntity
  8
0
100
AcDbVertex
100
AcDb2dVertex
 10
0.031495
 20
-0.02756
 30
0.0
  0
VERTEX
  5
855
330
127
100
AcDbEntity
  8
0
100
AcDbVertex
100
AcDb2dVertex
 10
0.031495
 20
0.02756
 30
0.0
  0
VERTEX
  5
856
330
127
100
AcDbEntity
  8
0
100
AcDbVertex
100
AcDb2dVertex
 10
-0.031495
 20
0.02756
 30
0.0
  0
SEQEND
  5
920
330
127
100
AcDbEntity
  8
0
  0
ENDBLK
  5
776
330
774
100
AcDbEntity
  8
0
100
AcDbBlockEnd
  0
BLOCK
  5
778
330
777
100
AcDbEntity
  8
0
100
AcDbBlockBegin
  2
D35
 70
     0
 10
0.0
 20
0.0
 30
0.0
  3
D35
  1
D35
  0
POLYLINE
  5
10C
330
777
100
AcDbEntity
  8
0
100
AcDb2dPolyline
 66
     1
 10
0.0
 20
0.0
 30
0.0
 70
     1
  0
VERTEX
  5
857
330
10C
100
AcDbEntity
  8
0
100
AcDbVertex
100
AcDb2dVertex
 10
-0.021655
 20
-0.017685
 30
0.0
  0
VERTEX
  5
858
330
10C
100
AcDbEntity
  8
0
100
AcDbVertex
100
AcDb2dVertex
 10
0.021655
 20
-0.017685
 30
0.0
  0
VERTEX
  5
859
330
10C
100
AcDbEntity
  8
0
100
AcDbVertex
100
AcDb2dVertex
 10
0.021655
 20
0.017685
 30
0.0
  0
VERTEX
  5
85A
330
10C
100
AcDbEntity
  8
0
100
AcDbVertex
100
AcDb2dVertex
 10
-0.021655
 20
0.017685
 30
0.0
  0
SEQEND
  5
921
330
10C
100
AcDbEntity
  8
0
  0
ENDBLK
  5
779
330
777
100
AcDbEntity
  8
0
100
AcDbBlockEnd
  0
BLOCK
  5
77B
330
77A
100
AcDbEntity
  8
0
100
AcDbBlockBegin
  2
D36
 70
     0
 10
0.0
 20
0.0
 30
0.0
  3
D36
  1
D36
  0
POLYLINE
  5
115
330
77A
100
AcDbEntity
  8
0
100
AcDb2dPolyline
 66
     1
 10
0.0
 20
0.0
 30
0.0
 70
     1
  0
VERTEX
  5
85B
330
115
100
AcDbEntity
  8
0
100
AcDbVertex
100
AcDb2dVertex
 10
-0.017685
 20
-0.021655
 30
0.0
  0
VERTEX
  5
85C
330
115
100
AcDbEntity
  8
0
100
AcDbVertex
100
AcDb2dVertex
 10
0.017685
 20
-0.021655
 30
0.0
  0
VERTEX
  5
85D
330
115
100
AcDbEntity
  8
0
100
AcDbVertex
100
AcDb2dVertex
 10
0.017685
 20
0.021655
 30
0.0
  0
VERTEX
  5
85E
330
115
100
AcDbEntity
  8
0
100
AcDbVertex
100
AcDb2dVertex
 10
-0.017685
 20
0.021655
 30
0.0
  0
SEQEND
  5
922
330
115
100
AcDbEntity
  8
0
  0
ENDBLK
  5
77C
330
77A
100
AcDbEntity
  8
0
100
AcDbBlockEnd
  0
BLOCK
  5
77E
330
77D
100
AcDbEntity
  8
0
100
AcDbBlockBegin
  2
D65
 70
     0
 10
0.0
 20
0.0
 30
0.0
  3
D65
  1
D65
  0
POLYLINE
  5
220
330
77D
100
AcDbEntity
  8
0
100
AcDb2dPolyline
 66
     1
 10
0.0
 20
0.0
 30
0.0
 70
     1
  0
VERTEX
  5
85F
330
220
100
AcDbEntity
  8
0
100
AcDbVertex
100
AcDb2dVertex
 10
0.033
 20
0.0136
 30
0.0
  0
VERTEX
  5
860
330
220
100
AcDbEntity
  8
0
100
AcDbVertex
100
AcDb2dVertex
 10
0.0136
 20
0.033
 30
0.0
  0
VERTEX
  5
861
330
220
100
AcDbEntity
  8
0
100
AcDbVertex
100
AcDb2dVertex
 10
-0.0136
 20
0.033
 30
0.0
  0
VERTEX
  5
862
330
220
100
AcDbEntity
  8
0
100
AcDbVertex
100
AcDb2dVertex
 10
-0.033
 20
0.0136
 30
0.0
  0
VERTEX
  5
863
330
220
100
AcDbEntity
  8
0
100
AcDbVertex
100
AcDb2dVertex
 10
-0.033
 20
-0.0136
 30
0.0
  0
VERTEX
  5
864
330
220
100
AcDbEntity
  8
0
100
AcDbVertex
100
AcDb2dVertex
 10
-0.0136
 20
-0.033
 30
0.0
  0
VERTEX
  5
865
330
220
100
AcDbEntity
  8
0
100
AcDbVertex
100
AcDb2dVertex
 10
0.0136
 20
-0.033
 30
0.0
  0
VERTEX
  5
866
330
220
100
AcDbEntity
  8
0
100
AcDbVertex
100
AcDb2dVertex
 10
0.033
 20
-0.0136
 30
0.0
  0
SEQEND
  5
923
330
220
100
AcDbEntity
  8
0
  0
ENDBLK
  5
77F
330
77D
100
AcDbEntity
  8
0
100
AcDbBlockEnd
  0
BLOCK
  5
781
330
780
100
AcDbEntity
  8
0
100
AcDbBlockBegin
  2
D66
 70
     0
 10
0.0
 20
0.0
 30
0.0
  3
D66
  1
D66
  0
POLYLINE
  5
22D
330
780
100
AcDbEntity
  8
0
100
AcDb2dPolyline
 66
     1
 10
0.0
 20
0.0
 30
0.0
 70
     1
  0
VERTEX
  5
867
330
22D
100
AcDbEntity
  8
0
100
AcDbVertex
100
AcDb2dVertex
 10
0.0326
 20
-0.0787
 30
0.0
  0
VERTEX
  5
868
330
22D
100
AcDbEntity
  8
0
100
AcDbVertex
100
AcDb2dVertex
 10
0.0787
 20
-0.0326
 30
0.0
  0
VERTEX
  5
869
330
22D
100
AcDbEntity
  8
0
100
AcDbVertex
100
AcDb2dVertex
 10
0.0787
 20
0.0326
 30
0.0
  0
VERTEX
  5
86A
330
22D
100
AcDbEntity
  8
0
100
AcDbVertex
100
AcDb2dVertex
 10
0.0326
 20
0.0787
 30
0.0
  0
VERTEX
  5
86B
330
22D
100
AcDbEntity
  8
0
100
AcDbVertex
100
AcDb2dVertex
 10
-0.0326
 20
0.0787
 30
0.0
  0
VERTEX
  5
86C
330
22D
100
AcDbEntity
  8
0
100
AcDbVertex
100
AcDb2dVertex
 10
-0.0787
 20
0.0326
 30
0.0
  0
VERTEX
  5
86D
330
22D
100
AcDbEntity
  8
0
100
AcDbVertex
100
AcDb2dVertex
 10
-0.0787
 20
-0.0326
 30
0.0
  0
VERTEX
  5
86E
330
22D
100
AcDbEntity
  8
0
100
AcDbVertex
100
AcDb2dVertex
 10
-0.0326
 20
-0.0787
 30
0.0
  0
SEQEND
  5
924
330
22D
100
AcDbEntity
  8
0
  0
ENDBLK
  5
782
330
780
100
AcDbEntity
  8
0
100
AcDbBlockEnd
  0
BLOCK
  5
784
330
783
100
AcDbEntity
  8
0
100
AcDbBlockBegin
  2
D63
 70
     0
 10
0.0
 20
0.0
 30
0.0
  3
D63
  1
D63
  0
POLYLINE
  5
206
330
783
100
AcDbEntity
  8
0
100
AcDb2dPolyline
 66
     1
 10
0.0
 20
0.0
 30
0.0
 70
     1
  0
VERTEX
  5
86F
330
206
100
AcDbEntity
  8
0
100
AcDbVertex
100
AcDb2dVertex
 10
-0.0305
 20
-0.0127
 30
0.0
  0
VERTEX
  5
870
330
206
100
AcDbEntity
  8
0
100
AcDbVertex
100
AcDb2dVertex
 10
-0.0127
 20
-0.0305
 30
0.0
  0
VERTEX
  5
871
330
206
100
AcDbEntity
  8
0
100
AcDbVertex
100
AcDb2dVertex
 10
0.0127
 20
-0.0305
 30
0.0
  0
VERTEX
  5
872
330
206
100
AcDbEntity
  8
0
100
AcDbVertex
100
AcDb2dVertex
 10
0.0305
 20
-0.0127
 30
0.0
  0
VERTEX
  5
873
330
206
100
AcDbEntity
  8
0
100
AcDbVertex
100
AcDb2dVertex
 10
0.0305
 20
0.0127
 30
0.0
  0
VERTEX
  5
874
330
206
100
AcDbEntity
  8
0
100
AcDbVertex
100
AcDb2dVertex
 10
0.0127
 20
0.0305
 30
0.0
  0
VERTEX
  5
875
330
206
100
AcDbEntity
  8
0
100
AcDbVertex
100
AcDb2dVertex
 10
-0.0127
 20
0.0305
 30
0.0
  0
VERTEX
  5
876
330
206
100
AcDbEntity
  8
0
100
AcDbVertex
100
AcDb2dVertex
 10
-0.0305
 20
0.0127
 30
0.0
  0
SEQEND
  5
925
330
206
100
AcDbEntity
  8
0
  0
ENDBLK
  5
785
330
783
100
AcDbEntity
  8
0
100
AcDbBlockEnd
  0
BLOCK
  5
787
330
786
100
AcDbEntity
  8
0
100
AcDbBlockBegin
  2
D64
 70
     0
 10
0.0
 20
0.0
 30
0.0
  3
D64
  1
D64
  0
POLYLINE
  5
213
330
786
100
AcDbEntity
  8
0
100
AcDb2dPolyline
 66
     1
 10
0.0
 20
0.0
 30
0.0
 70
     1
  0
VERTEX
  5
877
330
213
100
AcDbEntity
  8
0
100
AcDbVertex
100
AcDb2dVertex
 10
0.0136
 20
-0.033
 30
0.0
  0
VERTEX
  5
878
330
213
100
AcDbEntity
  8
0
100
AcDbVertex
100
AcDb2dVertex
 10
0.033
 20
-0.0136
 30
0.0
  0
VERTEX
  5
879
330
213
100
AcDbEntity
  8
0
100
AcDbVertex
100
AcDb2dVertex
 10
0.033
 20
0.0136
 30
0.0
  0
VERTEX
  5
87A
330
213
100
AcDbEntity
  8
0
100
AcDbVertex
100
AcDb2dVertex
 10
0.0136
 20
0.033
 30
0.0
  0
VERTEX
  5
87B
330
213
100
AcDbEntity
  8
0
100
AcDbVertex
100
AcDb2dVertex
 10
-0.0136
 20
0.033
 30
0.0
  0
VERTEX
  5
87C
330
213
100
AcDbEntity
  8
0
100
AcDbVertex
100
AcDb2dVertex
 10
-0.033
 20
0.0136
 30
0.0
  0
VERTEX
  5
87D
330
213
100
AcDbEntity
  8
0
100
AcDbVertex
100
AcDb2dVertex
 10
-0.033
 20
-0.0136
 30
0.0
  0
VERTEX
  5
87E
330
213
100
AcDbEntity
  8
0
100
AcDbVertex
100
AcDb2dVertex
 10
-0.0136
 20
-0.033
 30
0.0
  0
SEQEND
  5
926
330
213
100
AcDbEntity
  8
0
  0
ENDBLK
  5
788
330
786
100
AcDbEntity
  8
0
100
AcDbBlockEnd
  0
BLOCK
  5
78A
330
789
100
AcDbEntity
  8
0
100
AcDbBlockBegin
  2
D61
 70
     0
 10
0.0
 20
0.0
 30
0.0
  3
D61
  1
D61
  0
POLYLINE
  5
1EC
330
789
100
AcDbEntity
  8
0
100
AcDb2dPolyline
 66
     1
 10
0.0
 20
0.0
 30
0.0
 70
     1
  0
VERTEX
  5
87F
330
1EC
100
AcDbEntity
  8
0
100
AcDbVertex
100
AcDb2dVertex
 10
-0.028
 20
-0.0116
 30
0.0
  0
VERTEX
  5
880
330
1EC
100
AcDbEntity
  8
0
100
AcDbVertex
100
AcDb2dVertex
 10
-0.0116
 20
-0.028
 30
0.0
  0
VERTEX
  5
881
330
1EC
100
AcDbEntity
  8
0
100
AcDbVertex
100
AcDb2dVertex
 10
0.0116
 20
-0.028
 30
0.0
  0
VERTEX
  5
882
330
1EC
100
AcDbEntity
  8
0
100
AcDbVertex
100
AcDb2dVertex
 10
0.028
 20
-0.0116
 30
0.0
  0
VERTEX
  5
883
330
1EC
100
AcDbEntity
  8
0
100
AcDbVertex
100
AcDb2dVertex
 10
0.028
 20
0.0116
 30
0.0
  0
VERTEX
  5
884
330
1EC
100
AcDbEntity
  8
0
100
AcDbVertex
100
AcDb2dVertex
 10
0.0116
 20
0.028
 30
0.0
  0
VERTEX
  5
885
330
1EC
100
AcDbEntity
  8
0
100
AcDbVertex
100
AcDb2dVertex
 10
-0.0116
 20
0.028
 30
0.0
  0
VERTEX
  5
886
330
1EC
100
AcDbEntity
  8
0
100
AcDbVertex
100
AcDb2dVertex
 10
-0.028
 20
0.0116
 30
0.0
  0
SEQEND
  5
927
330
1EC
100
AcDbEntity
  8
0
  0
ENDBLK
  5
78B
330
789
100
AcDbEntity
  8
0
100
AcDbBlockEnd
  0
BLOCK
  5
78D
330
78C
100
AcDbEntity
  8
0
100
AcDbBlockBegin
  2
D62
 70
     0
 10
0.0
 20
0.0
 30
0.0
  3
D62
  1
D62
  0
POLYLINE
  5
1F9
330
78C
100
AcDbEntity
  8
0
100
AcDb2dPolyline
 66
     1
 10
0.0
 20
0.0
 30
0.0
 70
     1
  0
VERTEX
  5
887
330
1F9
100
AcDbEntity
  8
0
100
AcDbVertex
100
AcDb2dVertex
 10
0.03
 20
0.0124
 30
0.0
  0
VERTEX
  5
888
330
1F9
100
AcDbEntity
  8
0
100
AcDbVertex
100
AcDb2dVertex
 10
0.0124
 20
0.03
 30
0.0
  0
VERTEX
  5
889
330
1F9
100
AcDbEntity
  8
0
100
AcDbVertex
100
AcDb2dVertex
 10
-0.0124
 20
0.03
 30
0.0
  0
VERTEX
  5
88A
330
1F9
100
AcDbEntity
  8
0
100
AcDbVertex
100
AcDb2dVertex
 10
-0.03
 20
0.0124
 30
0.0
  0
VERTEX
  5
88B
330
1F9
100
AcDbEntity
  8
0
100
AcDbVertex
100
AcDb2dVertex
 10
-0.03
 20
-0.0124
 30
0.0
  0
VERTEX
  5
88C
330
1F9
100
AcDbEntity
  8
0
100
AcDbVertex
100
AcDb2dVertex
 10
-0.0124
 20
-0.03
 30
0.0
  0
VERTEX
  5
88D
330
1F9
100
AcDbEntity
  8
0
100
AcDbVertex
100
AcDb2dVertex
 10
0.0124
 20
-0.03
 30
0.0
  0
VERTEX
  5
88E
330
1F9
100
AcDbEntity
  8
0
100
AcDbVertex
100
AcDb2dVertex
 10
0.03
 20
-0.0124
 30
0.0
  0
SEQEND
  5
928
330
1F9
100
AcDbEntity
  8
0
  0
ENDBLK
  5
78E
330
78C
100
AcDbEntity
  8
0
100
AcDbBlockEnd
  0
BLOCK
  5
790
330
78F
100
AcDbEntity
  8
0
100
AcDbBlockBegin
  2
D59
 70
     0
 10
0.0
 20
0.0
 30
0.0
  3
D59
  1
D59
  0
POLYLINE
  5
1DA
330
78F
100
AcDbEntity
  8
0
100
AcDb2dPolyline
 66
     1
 10
0.0
 20
0.0
 30
0.0
 70
     1
  0
VERTEX
  5
88F
330
1DA
100
AcDbEntity
  8
0
100
AcDbVertex
100
AcDb2dVertex
 10
-0.03
 20
-0.032
 30
0.0
  0
VERTEX
  5
890
330
1DA
100
AcDbEntity
  8
0
100
AcDbVertex
100
AcDb2dVertex
 10
0.03
 20
-0.032
 30
0.0
  0
VERTEX
  5
891
330
1DA
100
AcDbEntity
  8
0
100
AcDbVertex
100
AcDb2dVertex
 10
0.03
 20
0.032
 30
0.0
  0
VERTEX
  5
892
330
1DA
100
AcDbEntity
  8
0
100
AcDbVertex
100
AcDb2dVertex
 10
-0.03
 20
0.032
 30
0.0
  0
SEQEND
  5
929
330
1DA
100
AcDbEntity
  8
0
  0
ENDBLK
  5
791
330
78F
100
AcDbEntity
  8
0
100
AcDbBlockEnd
  0
BLOCK
  5
793
330
792
100
AcDbEntity
  8
0
100
AcDbBlockBegin
  2
D60
 70
     0
 10
0.0
 20
0.0
 30
0.0
  3
D60
  1
D60
  0
POLYLINE
  5
1E3
330
792
100
AcDbEntity
  8
0
100
AcDb2dPolyline
 66
     1
 10
0.0
 20
0.0
 30
0.0
 70
     1
  0
VERTEX
  5
893
330
1E3
100
AcDbEntity
  8
0
100
AcDbVertex
100
AcDb2dVertex
 10
-0.02
 20
-0.02
 30
0.0
  0
VERTEX
  5
894
330
1E3
100
AcDbEntity
  8
0
100
AcDbVertex
100
AcDb2dVertex
 10
0.02
 20
-0.02
 30
0.0
  0
VERTEX
  5
895
330
1E3
100
AcDbEntity
  8
0
100
AcDbVertex
100
AcDb2dVertex
 10
0.02
 20
0.02
 30
0.0
  0
VERTEX
  5
896
330
1E3
100
AcDbEntity
  8
0
100
AcDbVertex
100
AcDb2dVertex
 10
-0.02
 20
0.02
 30
0.0
  0
SEQEND
  5
92A
330
1E3
100
AcDbEntity
  8
0
  0
ENDBLK
  5
794
330
792
100
AcDbEntity
  8
0
100
AcDbBlockEnd
  0
BLOCK
  5
796
330
795
100
AcDbEntity
  8
0
100
AcDbBlockBegin
  2
D57
 70
     0
 10
0.0
 20
0.0
 30
0.0
  3
D57
  1
D57
  0
POLYLINE
  5
1C8
330
795
100
AcDbEntity
  8
0
100
AcDb2dPolyline
 66
     1
 10
0.0
 20
0.0
 30
0.0
 70
     1
  0
VERTEX
  5
897
330
1C8
100
AcDbEntity
  8
0
100
AcDbVertex
100
AcDb2dVertex
 10
-0.0325
 20
-0.035
 30
0.0
  0
VERTEX
  5
898
330
1C8
100
AcDbEntity
  8
0
100
AcDbVertex
100
AcDb2dVertex
 10
0.0325
 20
-0.035
 30
0.0
  0
VERTEX
  5
899
330
1C8
100
AcDbEntity
  8
0
100
AcDbVertex
100
AcDb2dVertex
 10
0.0325
 20
0.035
 30
0.0
  0
VERTEX
  5
89A
330
1C8
100
AcDbEntity
  8
0
100
AcDbVertex
100
AcDb2dVertex
 10
-0.0325
 20
0.035
 30
0.0
  0
SEQEND
  5
92B
330
1C8
100
AcDbEntity
  8
0
  0
ENDBLK
  5
797
330
795
100
AcDbEntity
  8
0
100
AcDbBlockEnd
  0
BLOCK
  5
799
330
798
100
AcDbEntity
  8
0
100
AcDbBlockBegin
  2
D58
 70
     0
 10
0.0
 20
0.0
 30
0.0
  3
D58
  1
D58
  0
POLYLINE
  5
1D1
330
798
100
AcDbEntity
  8
0
100
AcDb2dPolyline
 66
     1
 10
0.0
 20
0.0
 30
0.0
 70
     1
  0
VERTEX
  5
89B
330
1D1
100
AcDbEntity
  8
0
100
AcDbVertex
100
AcDb2dVertex
 10
-0.025
 20
-0.03
 30
0.0
  0
VERTEX
  5
89C
330
1D1
100
AcDbEntity
  8
0
100
AcDbVertex
100
AcDb2dVertex
 10
0.025
 20
-0.03
 30
0.0
  0
VERTEX
  5
89D
330
1D1
100
AcDbEntity
  8
0
100
AcDbVertex
100
AcDb2dVertex
 10
0.025
 20
0.03
 30
0.0
  0
VERTEX
  5
89E
330
1D1
100
AcDbEntity
  8
0
100
AcDbVertex
100
AcDb2dVertex
 10
-0.025
 20
0.03
 30
0.0
  0
SEQEND
  5
92C
330
1D1
100
AcDbEntity
  8
0
  0
ENDBLK
  5
79A
330
798
100
AcDbEntity
  8
0
100
AcDbBlockEnd
  0
BLOCK
  5
79C
330
79B
100
AcDbEntity
  8
0
100
AcDbBlockBegin
  2
D55
 70
     0
 10
0.0
 20
0.0
 30
0.0
  3
D55
  1
D55
  0
POLYLINE
  5
1B6
330
79B
100
AcDbEntity
  8
0
100
AcDb2dPolyline
 66
     1
 10
0.0
 20
0.0
 30
0.0
 70
     1
  0
VERTEX
  5
89F
330
1B6
100
AcDbEntity
  8
0
100
AcDbVertex
100
AcDb2dVertex
 10
-0.02756
 20
-0.059055
 30
0.0
  0
VERTEX
  5
8A0
330
1B6
100
AcDbEntity
  8
0
100
AcDbVertex
100
AcDb2dVertex
 10
0.02756
 20
-0.059055
 30
0.0
  0
VERTEX
  5
8A1
330
1B6
100
AcDbEntity
  8
0
100
AcDbVertex
100
AcDb2dVertex
 10
0.02756
 20
0.059055
 30
0.0
  0
VERTEX
  5
8A2
330
1B6
100
AcDbEntity
  8
0
100
AcDbVertex
100
AcDb2dVertex
 10
-0.02756
 20
0.059055
 30
0.0
  0
SEQEND
  5
92D
330
1B6
100
AcDbEntity
  8
0
  0
ENDBLK
  5
79D
330
79B
100
AcDbEntity
  8
0
100
AcDbBlockEnd
  0
BLOCK
  5
79F
330
79E
100
AcDbEntity
  8
0
100
AcDbBlockBegin
  2
D56
 70
     0
 10
0.0
 20
0.0
 30
0.0
  3
D56
  1
D56
  0
POLYLINE
  5
1BF
330
79E
100
AcDbEntity
  8
0
100
AcDb2dPolyline
 66
     1
 10
0.0
 20
0.0
 30
0.0
 70
     1
  0
VERTEX
  5
8A3
330
1BF
100
AcDbEntity
  8
0
100
AcDbVertex
100
AcDb2dVertex
 10
-0.0265
 20
-0.008
 30
0.0
  0
VERTEX
  5
8A4
330
1BF
100
AcDbEntity
  8
0
100
AcDbVertex
100
AcDb2dVertex
 10
0.0265
 20
-0.008
 30
0.0
  0
VERTEX
  5
8A5
330
1BF
100
AcDbEntity
  8
0
100
AcDbVertex
100
AcDb2dVertex
 10
0.0265
 20
0.008
 30
0.0
  0
VERTEX
  5
8A6
330
1BF
100
AcDbEntity
  8
0
100
AcDbVertex
100
AcDb2dVertex
 10
-0.0265
 20
0.008
 30
0.0
  0
SEQEND
  5
92E
330
1BF
100
AcDbEntity
  8
0
  0
ENDBLK
  5
7A0
330
79E
100
AcDbEntity
  8
0
100
AcDbBlockEnd
  0
BLOCK
  5
7A2
330
7A1
100
AcDbEntity
  8
0
100
AcDbBlockBegin
  2
D53
 70
     0
 10
0.0
 20
0.0
 30
0.0
  3
D53
  1
D53
  0
CIRCLE
  5
1A9
330
7A1
100
AcDbEntity
  8
0
100
AcDbCircle
 10
0.0
 20
0.0
 30
0.0
 40
0.016735
  0
ENDBLK
  5
7A3
330
7A1
100
AcDbEntity
  8
0
100
AcDbBlockEnd
  0
BLOCK
  5
7A5
330
7A4
100
AcDbEntity
  8
0
100
AcDbBlockBegin
  2
D54
 70
     0
 10
0.0
 20
0.0
 30
0.0
  3
D54
  1
D54
  0
POLYLINE
  5
1AD
330
7A4
100
AcDbEntity
  8
0
100
AcDb2dPolyline
 66
     1
 10
0.0
 20
0.0
 30
0.0
 70
     1
  0
VERTEX
  5
8A7
330
1AD
100
AcDbEntity
  8
0
100
AcDbVertex
100
AcDb2dVertex
 10
-0.059055
 20
-0.02756
 30
0.0
  0
VERTEX
  5
8A8
330
1AD
100
AcDbEntity
  8
0
100
AcDbVertex
100
AcDb2dVertex
 10
0.059055
 20
-0.02756
 30
0.0
  0
VERTEX
  5
8A9
330
1AD
100
AcDbEntity
  8
0
100
AcDbVertex
100
AcDb2dVertex
 10
0.059055
 20
0.02756
 30
0.0
  0
VERTEX
  5
8AA
330
1AD
100
AcDbEntity
  8
0
100
AcDbVertex
100
AcDb2dVertex
 10
-0.059055
 20
0.02756
 30
0.0
  0
SEQEND
  5
92F
330
1AD
100
AcDbEntity
  8
0
  0
ENDBLK
  5
7A6
330
7A4
100
AcDbEntity
  8
0
100
AcDbBlockEnd
  0
BLOCK
  5
7A8
330
7A7
100
AcDbEntity
  8
0
100
AcDbBlockBegin
  2
D51
 70
     0
 10
0.0
 20
0.0
 30
0.0
  3
D51
  1
D51
  0
POLYLINE
  5
197
330
7A7
100
AcDbEntity
  8
0
100
AcDb2dPolyline
 66
     1
 10
0.0
 20
0.0
 30
0.0
 70
     1
  0
VERTEX
  5
8AB
330
197
100
AcDbEntity
  8
0
100
AcDbVertex
100
AcDb2dVertex
 10
-0.031495
 20
-0.02559
 30
0.0
  0
VERTEX
  5
8AC
330
197
100
AcDbEntity
  8
0
100
AcDbVertex
100
AcDb2dVertex
 10
0.031495
 20
-0.02559
 30
0.0
  0
VERTEX
  5
8AD
330
197
100
AcDbEntity
  8
0
100
AcDbVertex
100
AcDb2dVertex
 10
0.031495
 20
0.02559
 30
0.0
  0
VERTEX
  5
8AE
330
197
100
AcDbEntity
  8
0
100
AcDbVertex
100
AcDb2dVertex
 10
-0.031495
 20
0.02559
 30
0.0
  0
SEQEND
  5
930
330
197
100
AcDbEntity
  8
0
  0
ENDBLK
  5
7A9
330
7A7
100
AcDbEntity
  8
0
100
AcDbBlockEnd
  0
BLOCK
  5
7AB
330
7AA
100
AcDbEntity
  8
0
100
AcDbBlockBegin
  2
D52
 70
     0
 10
0.0
 20
0.0
 30
0.0
  3
D52
  1
D52
  0
POLYLINE
  5
1A0
330
7AA
100
AcDbEntity
  8
0
100
AcDb2dPolyline
 66
     1
 10
0.0
 20
0.0
 30
0.0
 70
     1
  0
VERTEX
  5
8AF
330
1A0
100
AcDbEntity
  8
0
100
AcDbVertex
100
AcDb2dVertex
 10
-0.035435
 20
-0.02953
 30
0.0
  0
VERTEX
  5
8B0
330
1A0
100
AcDbEntity
  8
0
100
AcDbVertex
100
AcDb2dVertex
 10
0.035435
 20
-0.02953
 30
0.0
  0
VERTEX
  5
8B1
330
1A0
100
AcDbEntity
  8
0
100
AcDbVertex
100
AcDb2dVertex
 10
0.035435
 20
0.02953
 30
0.0
  0
VERTEX
  5
8B2
330
1A0
100
AcDbEntity
  8
0
100
AcDbVertex
100
AcDb2dVertex
 10
-0.035435
 20
0.02953
 30
0.0
  0
SEQEND
  5
931
330
1A0
100
AcDbEntity
  8
0
  0
ENDBLK
  5
7AC
330
7AA
100
AcDbEntity
  8
0
100
AcDbBlockEnd
  0
BLOCK
  5
7AE
330
7AD
100
AcDbEntity
  8
0
100
AcDbBlockBegin
  2
D75
 70
     0
 10
0.0
 20
0.0
 30
0.0
  3
D75
  1
D75
  0
CIRCLE
  5
268
330
7AD
100
AcDbEntity
  8
0
100
AcDbCircle
 10
0.0
 20
0.0
 30
0.0
 40
0.018
  0
ENDBLK
  5
7AF
330
7AD
100
AcDbEntity
  8
0
100
AcDbBlockEnd
  0
BLOCK
  5
7B1
330
7B0
100
AcDbEntity
  8
0
100
AcDbBlockBegin
  2
D73
 70
     0
 10
0.0
 20
0.0
 30
0.0
  3
D73
  1
D73
  0
CIRCLE
  5
260
330
7B0
100
AcDbEntity
  8
0
100
AcDbCircle
 10
0.0
 20
0.0
 30
0.0
 40
0.02
  0
ENDBLK
  5
7B2
330
7B0
100
AcDbEntity
  8
0
100
AcDbBlockEnd
  0
BLOCK
  5
7B4
330
7B3
100
AcDbEntity
  8
0
100
AcDbBlockBegin
  2
D74
 70
     0
 10
0.0
 20
0.0
 30
0.0
  3
D74
  1
D74
  0
CIRCLE
  5
264
330
7B3
100
AcDbEntity
  8
0
100
AcDbCircle
 10
0.0
 20
0.0
 30
0.0
 40
0.016
  0
ENDBLK
  5
7B5
330
7B3
100
AcDbEntity
  8
0
100
AcDbBlockEnd
  0
BLOCK
  5
7B7
330
7B6
100
AcDbEntity
  8
0
100
AcDbBlockBegin
  2
D71
 70
     0
 10
0.0
 20
0.0
 30
0.0
  3
D71
  1
D71
  0
CIRCLE
  5
258
330
7B6
100
AcDbEntity
  8
0
100
AcDbCircle
 10
0.0
 20
0.0
 30
0.0
 40
0.02181
  0
ENDBLK
  5
7B8
330
7B6
100
AcDbEntity
  8
0
100
AcDbBlockEnd
  0
BLOCK
  5
7BA
330
7B9
100
AcDbEntity
  8
0
100
AcDbBlockBegin
  2
D72
 70
     0
 10
0.0
 20
0.0
 30
0.0
  3
D72
  1
D72
  0
CIRCLE
  5
25C
330
7B9
100
AcDbEntity
  8
0
100
AcDbCircle
 10
0.0
 20
0.0
 30
0.0
 40
0.02575
  0
ENDBLK
  5
7BB
330
7B9
100
AcDbEntity
  8
0
100
AcDbBlockEnd
  0
BLOCK
  5
7BD
330
7BC
100
AcDbEntity
  8
0
100
AcDbBlockBegin
  2
D69
 70
     0
 10
0.0
 20
0.0
 30
0.0
  3
D69
  1
D69
  0
CIRCLE
  5
24B
330
7BC
100
AcDbEntity
  8
0
100
AcDbCircle
 10
0.0
 20
0.0
 30
0.0
 40
0.02378
  0
ENDBLK
  5
7BE
330
7BC
100
AcDbEntity
  8
0
100
AcDbBlockEnd
  0
BLOCK
  5
7C0
330
7BF
100
AcDbEntity
  8
0
100
AcDbBlockBegin
  2
D70
 70
     0
 10
0.0
 20
0.0
 30
0.0
  3
D70
  1
D70
  0
POLYLINE
  5
24F
330
7BF
100
AcDbEntity
  8
0
100
AcDb2dPolyline
 66
     1
 10
0.0
 20
0.0
 30
0.0
 70
     1
  0
VERTEX
  5
8B3
330
24F
100
AcDbEntity
  8
0
100
AcDbVertex
100
AcDb2dVertex
 10
-0.02181
 20
-0.02181
 30
0.0
  0
VERTEX
  5
8B4
330
24F
100
AcDbEntity
  8
0
100
AcDbVertex
100
AcDb2dVertex
 10
0.02181
 20
-0.02181
 30
0.0
  0
VERTEX
  5
8B5
330
24F
100
AcDbEntity
  8
0
100
AcDbVertex
100
AcDb2dVertex
 10
0.02181
 20
0.02181
 30
0.0
  0
VERTEX
  5
8B6
330
24F
100
AcDbEntity
  8
0
100
AcDbVertex
100
AcDb2dVertex
 10
-0.02181
 20
0.02181
 30
0.0
  0
SEQEND
  5
932
330
24F
100
AcDbEntity
  8
0
  0
ENDBLK
  5
7C1
330
7BF
100
AcDbEntity
  8
0
100
AcDbBlockEnd
  0
BLOCK
  5
7C3
330
7C2
100
AcDbEntity
  8
0
100
AcDbBlockBegin
  2
D67
 70
     0
 10
0.0
 20
0.0
 30
0.0
  3
D67
  1
D67
  0
POLYLINE
  5
23A
330
7C2
100
AcDbEntity
  8
0
100
AcDb2dPolyline
 66
     1
 10
0.0
 20
0.0
 30
0.0
 70
     1
  0
VERTEX
  5
8B7
330
23A
100
AcDbEntity
  8
0
100
AcDbVertex
100
AcDb2dVertex
 10
-0.0787
 20
-0.0326
 30
0.0
  0
VERTEX
  5
8B8
330
23A
100
AcDbEntity
  8
0
100
AcDbVertex
100
AcDb2dVertex
 10
-0.0326
 20
-0.0787
 30
0.0
  0
VERTEX
  5
8B9
330
23A
100
AcDbEntity
  8
0
100
AcDbVertex
100
AcDb2dVertex
 10
0.0326
 20
-0.0787
 30
0.0
  0
VERTEX
  5
8BA
330
23A
100
AcDbEntity
  8
0
100
AcDbVertex
100
AcDb2dVertex
 10
0.0787
 20
-0.0326
 30
0.0
  0
VERTEX
  5
8BB
330
23A
100
AcDbEntity
  8
0
100
AcDbVertex
100
AcDb2dVertex
 10
0.0787
 20
0.0326
 30
0.0
  0
VERTEX
  5
8BC
330
23A
100
AcDbEntity
  8
0
100
AcDbVertex
100
AcDb2dVertex
 10
0.0326
 20
0.0787
 30
0.0
  0
VERTEX
  5
8BD
330
23A
100
AcDbEntity
  8
0
100
AcDbVertex
100
AcDb2dVertex
 10
-0.0326
 20
0.0787
 30
0.0
  0
VERTEX
  5
8BE
330
23A
100
AcDbEntity
  8
0
100
AcDbVertex
100
AcDb2dVertex
 10
-0.0787
 20
0.0326
 30
0.0
  0
SEQEND
  5
933
330
23A
100
AcDbEntity
  8
0
  0
ENDBLK
  5
7C4
330
7C2
100
AcDbEntity
  8
0
100
AcDbBlockEnd
  0
BLOCK
  5
7C6
330
7C5
100
AcDbEntity
  8
0
100
AcDbBlockBegin
  2
D68
 70
     0
 10
0.0
 20
0.0
 30
0.0
  3
D68
  1
D68
  0
CIRCLE
  5
247
330
7C5
100
AcDbEntity
  8
0
100
AcDbCircle
 10
0.0
 20
0.0
 30
0.0
 40
0.038385
  0
ENDBLK
  5
7C7
330
7C5
100
AcDbEntity
  8
0
100
AcDbBlockEnd
  0
BLOCK
  5
7C9
330
7C8
100
AcDbEntity
  8
0
100
AcDbBlockBegin
  2
D17
 70
     0
 10
0.0
 20
0.0
 30
0.0
  3
D17
  1
D17
  0
POLYLINE
  5
6A
330
7C8
100
AcDbEntity
  8
0
100
AcDb2dPolyline
 66
     1
 10
0.0
 20
0.0
 30
0.0
 70
     1
  0
VERTEX
  5
8BF
330
6A
100
AcDbEntity
  8
0
100
AcDbVertex
100
AcDb2dVertex
 10
-0.035435
 20
-0.02756
 30
0.0
  0
VERTEX
  5
8C0
330
6A
100
AcDbEntity
  8
0
100
AcDbVertex
100
AcDb2dVertex
 10
0.035435
 20
-0.02756
 30
0.0
  0
VERTEX
  5
8C1
330
6A
100
AcDbEntity
  8
0
100
AcDbVertex
100
AcDb2dVertex
 10
0.035435
 20
0.02756
 30
0.0
  0
VERTEX
  5
8C2
330
6A
100
AcDbEntity
  8
0
100
AcDbVertex
100
AcDb2dVertex
 10
-0.035435
 20
0.02756
 30
0.0
  0
SEQEND
  5
934
330
6A
100
AcDbEntity
  8
0
  0
ENDBLK
  5
7CA
330
7C8
100
AcDbEntity
  8
0
100
AcDbBlockEnd
  0
BLOCK
  5
7CC
330
7CB
100
AcDbEntity
  8
0
100
AcDbBlockBegin
  2
D18
 70
     0
 10
0.0
 20
0.0
 30
0.0
  3
D18
  1
D18
  0
POLYLINE
  5
73
330
7CB
100
AcDbEntity
  8
0
100
AcDb2dPolyline
 66
     1
 10
0.0
 20
0.0
 30
0.0
 70
     1
  0
VERTEX
  5
8C3
330
73
100
AcDbEntity
  8
0
100
AcDbVertex
100
AcDb2dVertex
 10
-0.0525
 20
-0.05
 30
0.0
  0
VERTEX
  5
8C4
330
73
100
AcDbEntity
  8
0
100
AcDbVertex
100
AcDb2dVertex
 10
0.0525
 20
-0.05
 30
0.0
  0
VERTEX
  5
8C5
330
73
100
AcDbEntity
  8
0
100
AcDbVertex
100
AcDb2dVertex
 10
0.0525
 20
0.05
 30
0.0
  0
VERTEX
  5
8C6
330
73
100
AcDbEntity
  8
0
100
AcDbVertex
100
AcDb2dVertex
 10
-0.0525
 20
0.05
 30
0.0
  0
SEQEND
  5
935
330
73
100
AcDbEntity
  8
0
  0
ENDBLK
  5
7CD
330
7CB
100
AcDbEntity
  8
0
100
AcDbBlockEnd
  0
BLOCK
  5
7CF
330
7CE
100
AcDbEntity
  8
0
100
AcDbBlockBegin
  2
D15
 70
     0
 10
0.0
 20
0.0
 30
0.0
  3
D15
  1
D15
  0
POLYLINE
  5
58
330
7CE
100
AcDbEntity
  8
0
100
AcDb2dPolyline
 66
     1
 10
0.0
 20
0.0
 30
0.0
 70
     1
  0
VERTEX
  5
8C7
330
58
100
AcDbEntity
  8
0
100
AcDbVertex
100
AcDb2dVertex
 10
-0.017685
 20
-0.021655
 30
0.0
  0
VERTEX
  5
8C8
330
58
100
AcDbEntity
  8
0
100
AcDbVertex
100
AcDb2dVertex
 10
0.017685
 20
-0.021655
 30
0.0
  0
VERTEX
  5
8C9
330
58
100
AcDbEntity
  8
0
100
AcDbVertex
100
AcDb2dVertex
 10
0.017685
 20
0.021655
 30
0.0
  0
VERTEX
  5
8CA
330
58
100
AcDbEntity
  8
0
100
AcDbVertex
100
AcDb2dVertex
 10
-0.017685
 20
0.021655
 30
0.0
  0
SEQEND
  5
936
330
58
100
AcDbEntity
  8
0
  0
ENDBLK
  5
7D0
330
7CE
100
AcDbEntity
  8
0
100
AcDbBlockEnd
  0
BLOCK
  5
7D2
330
7D1
100
AcDbEntity
  8
0
100
AcDbBlockBegin
  2
D16
 70
     0
 10
0.0
 20
0.0
 30
0.0
  3
D16
  1
D16
  0
POLYLINE
  5
61
330
7D1
100
AcDbEntity
  8
0
100
AcDb2dPolyline
 66
     1
 10
0.0
 20
0.0
 30
0.0
 70
     1
  0
VERTEX
  5
8CB
330
61
100
AcDbEntity
  8
0
100
AcDbVertex
100
AcDb2dVertex
 10
-0.047245
 20
-0.047245
 30
0.0
  0
VERTEX
  5
8CC
330
61
100
AcDbEntity
  8
0
100
AcDbVertex
100
AcDb2dVertex
 10
0.047245
 20
-0.047245
 30
0.0
  0
VERTEX
  5
8CD
330
61
100
AcDbEntity
  8
0
100
AcDbVertex
100
AcDb2dVertex
 10
0.047245
 20
0.047245
 30
0.0
  0
VERTEX
  5
8CE
330
61
100
AcDbEntity
  8
0
100
AcDbVertex
100
AcDb2dVertex
 10
-0.047245
 20
0.047245
 30
0.0
  0
SEQEND
  5
937
330
61
100
AcDbEntity
  8
0
  0
ENDBLK
  5
7D3
330
7D1
100
AcDbEntity
  8
0
100
AcDbBlockEnd
  0
BLOCK
  5
7D5
330
7D4
100
AcDbEntity
  8
0
100
AcDbBlockBegin
  2
D13
 70
     0
 10
0.0
 20
0.0
 30
0.0
  3
D13
  1
D13
  0
POLYLINE
  5
46
330
7D4
100
AcDbEntity
  8
0
100
AcDb2dPolyline
 66
     1
 10
0.0
 20
0.0
 30
0.0
 70
     1
  0
VERTEX
  5
8CF
330
46
100
AcDbEntity
  8
0
100
AcDbVertex
100
AcDb2dVertex
 10
-0.015
 20
-0.01
 30
0.0
  0
VERTEX
  5
8D0
330
46
100
AcDbEntity
  8
0
100
AcDbVertex
100
AcDb2dVertex
 10
0.015
 20
-0.01
 30
0.0
  0
VERTEX
  5
8D1
330
46
100
AcDbEntity
  8
0
100
AcDbVertex
100
AcDb2dVertex
 10
0.015
 20
0.01
 30
0.0
  0
VERTEX
  5
8D2
330
46
100
AcDbEntity
  8
0
100
AcDbVertex
100
AcDb2dVertex
 10
-0.015
 20
0.01
 30
0.0
  0
SEQEND
  5
938
330
46
100
AcDbEntity
  8
0
  0
ENDBLK
  5
7D6
330
7D4
100
AcDbEntity
  8
0
100
AcDbBlockEnd
  0
BLOCK
  5
7D8
330
7D7
100
AcDbEntity
  8
0
100
AcDbBlockBegin
  2
D14
 70
     0
 10
0.0
 20
0.0
 30
0.0
  3
D14
  1
D14
  0
POLYLINE
  5
4F
330
7D7
100
AcDbEntity
  8
0
100
AcDb2dPolyline
 66
     1
 10
0.0
 20
0.0
 30
0.0
 70
     1
  0
VERTEX
  5
8D3
330
4F
100
AcDbEntity
  8
0
100
AcDbVertex
100
AcDb2dVertex
 10
-0.047245
 20
-0.031495
 30
0.0
  0
VERTEX
  5
8D4
330
4F
100
AcDbEntity
  8
0
100
AcDbVertex
100
AcDb2dVertex
 10
0.047245
 20
-0.031495
 30
0.0
  0
VERTEX
  5
8D5
330
4F
100
AcDbEntity
  8
0
100
AcDbVertex
100
AcDb2dVertex
 10
0.047245
 20
0.031495
 30
0.0
  0
VERTEX
  5
8D6
330
4F
100
AcDbEntity
  8
0
100
AcDbVertex
100
AcDb2dVertex
 10
-0.047245
 20
0.031495
 30
0.0
  0
SEQEND
  5
939
330
4F
100
AcDbEntity
  8
0
  0
ENDBLK
  5
7D9
330
7D7
100
AcDbEntity
  8
0
100
AcDbBlockEnd
  0
BLOCK
  5
7DB
330
7DA
100
AcDbEntity
  8
0
100
AcDbBlockBegin
  2
D11
 70
     0
 10
0.0
 20
0.0
 30
0.0
  3
D11
  1
D11
  0
POLYLINE
  5
34
330
7DA
100
AcDbEntity
  8
0
100
AcDb2dPolyline
 66
     1
 10
0.0
 20
0.0
 30
0.0
 70
     1
  0
VERTEX
  5
8D7
330
34
100
AcDbEntity
  8
0
100
AcDbVertex
100
AcDb2dVertex
 10
-0.031495
 20
-0.047245
 30
0.0
  0
VERTEX
  5
8D8
330
34
100
AcDbEntity
  8
0
100
AcDbVertex
100
AcDb2dVertex
 10
0.031495
 20
-0.047245
 30
0.0
  0
VERTEX
  5
8D9
330
34
100
AcDbEntity
  8
0
100
AcDbVertex
100
AcDb2dVertex
 10
0.031495
 20
0.047245
 30
0.0
  0
VERTEX
  5
8DA
330
34
100
AcDbEntity
  8
0
100
AcDbVertex
100
AcDb2dVertex
 10
-0.031495
 20
0.047245
 30
0.0
  0
SEQEND
  5
93A
330
34
100
AcDbEntity
  8
0
  0
ENDBLK
  5
7DC
330
7DA
100
AcDbEntity
  8
0
100
AcDbBlockEnd
  0
BLOCK
  5
7DE
330
7DD
100
AcDbEntity
  8
0
100
AcDbBlockBegin
  2
D12
 70
     0
 10
0.0
 20
0.0
 30
0.0
  3
D12
  1
D12
  0
POLYLINE
  5
3D
330
7DD
100
AcDbEntity
  8
0
100
AcDb2dPolyline
 66
     1
 10
0.0
 20
0.0
 30
0.0
 70
     1
  0
VERTEX
  5
8DB
330
3D
100
AcDbEntity
  8
0
100
AcDbVertex
100
AcDb2dVertex
 10
-0.01
 20
-0.015
 30
0.0
  0
VERTEX
  5
8DC
330
3D
100
AcDbEntity
  8
0
100
AcDbVertex
100
AcDb2dVertex
 10
0.01
 20
-0.015
 30
0.0
  0
VERTEX
  5
8DD
330
3D
100
AcDbEntity
  8
0
100
AcDbVertex
100
AcDb2dVertex
 10
0.01
 20
0.015
 30
0.0
  0
VERTEX
  5
8DE
330
3D
100
AcDbEntity
  8
0
100
AcDbVertex
100
AcDb2dVertex
 10
-0.01
 20
0.015
 30
0.0
  0
SEQEND
  5
93B
330
3D
100
AcDbEntity
  8
0
  0
ENDBLK
  5
7DF
330
7DD
100
AcDbEntity
  8
0
100
AcDbBlockEnd
  0
BLOCK
  5
7E1
330
7E0
100
AcDbEntity
  8
0
100
AcDbBlockBegin
  2
D10
 70
     0
 10
0.0
 20
0.0
 30
0.0
  3
D10
  1
D10
  0
POLYLINE
  5
2B
330
7E0
100
AcDbEntity
  8
0
100
AcDb2dPolyline
 66
     1
 10
0.0
 20
0.0
 30
0.0
 70
     1
  0
VERTEX
  5
8DF
330
2B
100
AcDbEntity
  8
0
100
AcDbVertex
100
AcDb2dVertex
 10
-0.017715
 20
-0.01378
 30
0.0
  0
VERTEX
  5
8E0
330
2B
100
AcDbEntity
  8
0
100
AcDbVertex
100
AcDb2dVertex
 10
0.017715
 20
-0.01378
 30
0.0
  0
VERTEX
  5
8E1
330
2B
100
AcDbEntity
  8
0
100
AcDbVertex
100
AcDb2dVertex
 10
0.017715
 20
0.01378
 30
0.0
  0
VERTEX
  5
8E2
330
2B
100
AcDbEntity
  8
0
100
AcDbVertex
100
AcDb2dVertex
 10
-0.017715
 20
0.01378
 30
0.0
  0
SEQEND
  5
93C
330
2B
100
AcDbEntity
  8
0
  0
ENDBLK
  5
7E2
330
7E0
100
AcDbEntity
  8
0
100
AcDbBlockEnd
  0
BLOCK
  5
7E4
330
7E3
100
AcDbEntity
  8
0
100
AcDbBlockBegin
  2
D33
 70
     0
 10
0.0
 20
0.0
 30
0.0
  3
D33
  1
D33
  0
POLYLINE
  5
FA
330
7E3
100
AcDbEntity
  8
0
100
AcDb2dPolyline
 66
     1
 10
0.0
 20
0.0
 30
0.0
 70
     1
  0
VERTEX
  5
8E3
330
FA
100
AcDbEntity
  8
0
100
AcDbVertex
100
AcDb2dVertex
 10
-0.02953
 20
-0.049215
 30
0.0
  0
VERTEX
  5
8E4
330
FA
100
AcDbEntity
  8
0
100
AcDbVertex
100
AcDb2dVertex
 10
0.02953
 20
-0.049215
 30
0.0
  0
VERTEX
  5
8E5
330
FA
100
AcDbEntity
  8
0
100
AcDbVertex
100
AcDb2dVertex
 10
0.02953
 20
0.049215
 30
0.0
  0
VERTEX
  5
8E6
330
FA
100
AcDbEntity
  8
0
100
AcDbVertex
100
AcDb2dVertex
 10
-0.02953
 20
0.049215
 30
0.0
  0
SEQEND
  5
93D
330
FA
100
AcDbEntity
  8
0
  0
ENDBLK
  5
7E5
330
7E3
100
AcDbEntity
  8
0
100
AcDbBlockEnd
  0
BLOCK
  5
7E7
330
7E6
100
AcDbEntity
  8
0
100
AcDbBlockBegin
  2
D34
 70
     0
 10
0.0
 20
0.0
 30
0.0
  3
D34
  1
D34
  0
POLYLINE
  5
103
330
7E6
100
AcDbEntity
  8
0
100
AcDb2dPolyline
 66
     1
 10
0.0
 20
0.0
 30
0.0
 70
     1
  0
VERTEX
  5
8E7
330
103
100
AcDbEntity
  8
0
100
AcDbVertex
100
AcDb2dVertex
 10
-0.02756
 20
-0.019685
 30
0.0
  0
VERTEX
  5
8E8
330
103
100
AcDbEntity
  8
0
100
AcDbVertex
100
AcDb2dVertex
 10
0.02756
 20
-0.019685
 30
0.0
  0
VERTEX
  5
8E9
330
103
100
AcDbEntity
  8
0
100
AcDbVertex
100
AcDb2dVertex
 10
0.02756
 20
0.019685
 30
0.0
  0
VERTEX
  5
8EA
330
103
100
AcDbEntity
  8
0
100
AcDbVertex
100
AcDb2dVertex
 10
-0.02756
 20
0.019685
 30
0.0
  0
SEQEND
  5
93E
330
103
100
AcDbEntity
  8
0
  0
ENDBLK
  5
7E8
330
7E6
100
AcDbEntity
  8
0
100
AcDbBlockEnd
  0
BLOCK
  5
7EA
330
7E9
100
AcDbEntity
  8
0
100
AcDbBlockBegin
  2
D31
 70
     0
 10
0.0
 20
0.0
 30
0.0
  3
D31
  1
D31
  0
POLYLINE
  5
E8
330
7E9
100
AcDbEntity
  8
0
100
AcDb2dPolyline
 66
     1
 10
0.0
 20
0.0
 30
0.0
 70
     1
  0
VERTEX
  5
8EB
330
E8
100
AcDbEntity
  8
0
100
AcDbVertex
100
AcDb2dVertex
 10
-0.02362
 20
-0.02362
 30
0.0
  0
VERTEX
  5
8EC
330
E8
100
AcDbEntity
  8
0
100
AcDbVertex
100
AcDb2dVertex
 10
0.02362
 20
-0.02362
 30
0.0
  0
VERTEX
  5
8ED
330
E8
100
AcDbEntity
  8
0
100
AcDbVertex
100
AcDb2dVertex
 10
0.02362
 20
0.02362
 30
0.0
  0
VERTEX
  5
8EE
330
E8
100
AcDbEntity
  8
0
100
AcDbVertex
100
AcDb2dVertex
 10
-0.02362
 20
0.02362
 30
0.0
  0
SEQEND
  5
93F
330
E8
100
AcDbEntity
  8
0
  0
ENDBLK
  5
7EB
330
7E9
100
AcDbEntity
  8
0
100
AcDbBlockEnd
  0
BLOCK
  5
7ED
330
7EC
100
AcDbEntity
  8
0
100
AcDbBlockBegin
  2
D32
 70
     0
 10
0.0
 20
0.0
 30
0.0
  3
D32
  1
D32
  0
POLYLINE
  5
F1
330
7EC
100
AcDbEntity
  8
0
100
AcDb2dPolyline
 66
     1
 10
0.0
 20
0.0
 30
0.0
 70
     1
  0
VERTEX
  5
8EF
330
F1
100
AcDbEntity
  8
0
100
AcDbVertex
100
AcDb2dVertex
 10
-0.02362
 20
-0.019685
 30
0.0
  0
VERTEX
  5
8F0
330
F1
100
AcDbEntity
  8
0
100
AcDbVertex
100
AcDb2dVertex
 10
0.02362
 20
-0.019685
 30
0.0
  0
VERTEX
  5
8F1
330
F1
100
AcDbEntity
  8
0
100
AcDbVertex
100
AcDb2dVertex
 10
0.02362
 20
0.019685
 30
0.0
  0
VERTEX
  5
8F2
330
F1
100
AcDbEntity
  8
0
100
AcDbVertex
100
AcDb2dVertex
 10
-0.02362
 20
0.019685
 30
0.0
  0
SEQEND
  5
940
330
F1
100
AcDbEntity
  8
0
  0
ENDBLK
  5
7EE
330
7EC
100
AcDbEntity
  8
0
100
AcDbBlockEnd
  0
BLOCK
  5
7F0
330
7EF
100
AcDbEntity
  8
0
100
AcDbBlockBegin
  2
D29
 70
     0
 10
0.0
 20
0.0
 30
0.0
  3
D29
  1
D29
  0
POLYLINE
  5
D6
330
7EF
100
AcDbEntity
  8
0
100
AcDb2dPolyline
 66
     1
 10
0.0
 20
0.0
 30
0.0
 70
     1
  0
VERTEX
  5
8F3
330
D6
100
AcDbEntity
  8
0
100
AcDbVertex
100
AcDb2dVertex
 10
-0.064055
 20
-0.064055
 30
0.0
  0
VERTEX
  5
8F4
330
D6
100
AcDbEntity
  8
0
100
AcDbVertex
100
AcDb2dVertex
 10
0.064055
 20
-0.064055
 30
0.0
  0
VERTEX
  5
8F5
330
D6
100
AcDbEntity
  8
0
100
AcDbVertex
100
AcDb2dVertex
 10
0.064055
 20
0.064055
 30
0.0
  0
VERTEX
  5
8F6
330
D6
100
AcDbEntity
  8
0
100
AcDbVertex
100
AcDb2dVertex
 10
-0.064055
 20
0.064055
 30
0.0
  0
SEQEND
  5
941
330
D6
100
AcDbEntity
  8
0
  0
ENDBLK
  5
7F1
330
7EF
100
AcDbEntity
  8
0
100
AcDbBlockEnd
  0
BLOCK
  5
7F3
330
7F2
100
AcDbEntity
  8
0
100
AcDbBlockBegin
  2
D30
 70
     0
 10
0.0
 20
0.0
 30
0.0
  3
D30
  1
D30
  0
POLYLINE
  5
DF
330
7F2
100
AcDbEntity
  8
0
100
AcDb2dPolyline
 66
     1
 10
0.0
 20
0.0
 30
0.0
 70
     1
  0
VERTEX
  5
8F7
330
DF
100
AcDbEntity
  8
0
100
AcDbVertex
100
AcDb2dVertex
 10
-0.007875
 20
-0.01378
 30
0.0
  0
VERTEX
  5
8F8
330
DF
100
AcDbEntity
  8
0
100
AcDbVertex
100
AcDb2dVertex
 10
0.007875
 20
-0.01378
 30
0.0
  0
VERTEX
  5
8F9
330
DF
100
AcDbEntity
  8
0
100
AcDbVertex
100
AcDb2dVertex
 10
0.007875
 20
0.01378
 30
0.0
  0
VERTEX
  5
8FA
330
DF
100
AcDbEntity
  8
0
100
AcDbVertex
100
AcDb2dVertex
 10
-0.007875
 20
0.01378
 30
0.0
  0
SEQEND
  5
942
330
DF
100
AcDbEntity
  8
0
  0
ENDBLK
  5
7F4
330
7F2
100
AcDbEntity
  8
0
100
AcDbBlockEnd
  0
BLOCK
  5
7F6
330
7F5
100
AcDbEntity
  8
0
100
AcDbBlockBegin
  2
D27
 70
     0
 10
0.0
 20
0.0
 30
0.0
  3
D27
  1
D27
  0
POLYLINE
  5
C4
330
7F5
100
AcDbEntity
  8
0
100
AcDb2dPolyline
 66
     1
 10
0.0
 20
0.0
 30
0.0
 70
     1
  0
VERTEX
  5
8FB
330
C4
100
AcDbEntity
  8
0
100
AcDbVertex
100
AcDb2dVertex
 10
-0.01378
 20
-0.00551
 30
0.0
  0
VERTEX
  5
8FC
330
C4
100
AcDbEntity
  8
0
100
AcDbVertex
100
AcDb2dVertex
 10
0.01378
 20
-0.00551
 30
0.0
  0
VERTEX
  5
8FD
330
C4
100
AcDbEntity
  8
0
100
AcDbVertex
100
AcDb2dVertex
 10
0.01378
 20
0.00551
 30
0.0
  0
VERTEX
  5
8FE
330
C4
100
AcDbEntity
  8
0
100
AcDbVertex
100
AcDb2dVertex
 10
-0.01378
 20
0.00551
 30
0.0
  0
SEQEND
  5
943
330
C4
100
AcDbEntity
  8
0
  0
ENDBLK
  5
7F7
330
7F5
100
AcDbEntity
  8
0
100
AcDbBlockEnd
  0
BLOCK
  5
7F9
330
7F8
100
AcDbEntity
  8
0
100
AcDbBlockBegin
  2
D28
 70
     0
 10
0.0
 20
0.0
 30
0.0
  3
D28
  1
D28
  0
POLYLINE
  5
CD
330
7F8
100
AcDbEntity
  8
0
100
AcDb2dPolyline
 66
     1
 10
0.0
 20
0.0
 30
0.0
 70
     1
  0
VERTEX
  5
8FF
330
CD
100
AcDbEntity
  8
0
100
AcDbVertex
100
AcDb2dVertex
 10
-0.00551
 20
-0.01378
 30
0.0
  0
VERTEX
  5
900
330
CD
100
AcDbEntity
  8
0
100
AcDbVertex
100
AcDb2dVertex
 10
0.00551
 20
-0.01378
 30
0.0
  0
VERTEX
  5
901
330
CD
100
AcDbEntity
  8
0
100
AcDbVertex
100
AcDb2dVertex
 10
0.00551
 20
0.01378
 30
0.0
  0
VERTEX
  5
902
330
CD
100
AcDbEntity
  8
0
100
AcDbVertex
100
AcDb2dVertex
 10
-0.00551
 20
0.01378
 30
0.0
  0
SEQEND
  5
944
330
CD
100
AcDbEntity
  8
0
  0
ENDBLK
  5
7FA
330
7F8
100
AcDbEntity
  8
0
100
AcDbBlockEnd
  0
ENDSEC
  0
SECTION
  2
ENTITIES
  0
INSERT
  5
26A
330
679
100
AcDbEntity
  8
GTS
100
AcDbBlockReference
  2
D10
 10
1.907
 20
1.586
 30
0.0
  0
INSERT
  5
26B
330
679
100
AcDbEntity
  8
GTS
100
AcDbBlockReference
  2
D10
 10
1.907
 20
1.535
 30
0.0
  0
INSERT
  5
26C
330
679
100
AcDbEntity
  8
GTS
100
AcDbBlockReference
  2
D10
 10
1.907
 20
1.484
 30
0.0
  0
INSERT
  5
26D
330
679
100
AcDbEntity
  8
GTS
100
AcDbBlockReference
  2
D11
 10
2.18
 20
1.115
 30
0.0
  0
INSERT
  5
26E
330
679
100
AcDbEntity
  8
GTS
100
AcDbBlockReference
  2
D11
 10
2.299
 20
1.115
 30
0.0
  0
INSERT
  5
26F
330
679
100
AcDbEntity
  8
GTS
100
AcDbBlockReference
  2
D11
 10
1.954
 20
2.319
 30
0.0
  0
INSERT
  5
270
330
679
100
AcDbEntity
  8
GTS
100
AcDbBlockReference
  2
D11
 10
1.835
 20
2.319
 30
0.0
  0
INSERT
  5
271
330
679
100
AcDbEntity
  8
GTS
100
AcDbBlockReference
  2
D11
 10
2.42
 20
1.115
 30
0.0
  0
INSERT
  5
272
330
679
100
AcDbEntity
  8
GTS
100
AcDbBlockReference
  2
D11
 10
2.539
 20
1.115
 30
0.0
  0
INSERT
  5
273
330
679
100
AcDbEntity
  8
GTS
100
AcDbBlockReference
  2
D11
 10
2.09
 20
1.616
 30
0.0
  0
INSERT
  5
274
330
679
100
AcDbEntity
  8
GTS
100
AcDbBlockReference
  2
D11
 10
1.971
 20
1.616
 30
0.0
  0
INSERT
  5
275
330
679
100
AcDbEntity
  8
GTS
100
AcDbBlockReference
  2
D11
 10
2.468
 20
2.427
 30
0.0
  0
INSERT
  5
276
330
679
100
AcDbEntity
  8
GTS
100
AcDbBlockReference
  2
D11
 10
2.587
 20
2.427
 30
0.0
  0
INSERT
  5
277
330
679
100
AcDbEntity
  8
GTS
100
AcDbBlockReference
  2
D12
 10
2.206
 20
1.543
 30
0.0
  0
INSERT
  5
278
330
679
100
AcDbEntity
  8
GTS
100
AcDbBlockReference
  2
D12
 10
2.241
 20
1.543
 30
0.0
  0
INSERT
  5
279
330
679
100
AcDbEntity
  8
GTS
100
AcDbBlockReference
  2
D12
 10
2.166
 20
1.643
 30
0.0
  0
INSERT
  5
27A
330
679
100
AcDbEntity
  8
GTS
100
AcDbBlockReference
  2
D12
 10
2.201
 20
1.643
 30
0.0
  0
INSERT
  5
27B
330
679
100
AcDbEntity
  8
GTS
100
AcDbBlockReference
  2
D12
 10
2.166
 20
2.019
 30
0.0
  0
INSERT
  5
27C
330
679
100
AcDbEntity
  8
GTS
100
AcDbBlockReference
  2
D12
 10
2.201
 20
2.019
 30
0.0
  0
INSERT
  5
27D
330
679
100
AcDbEntity
  8
GTS
100
AcDbBlockReference
  2
D12
 10
2.154
 20
1.939
 30
0.0
  0
INSERT
  5
27E
330
679
100
AcDbEntity
  8
GTS
100
AcDbBlockReference
  2
D12
 10
2.189
 20
1.939
 30
0.0
  0
INSERT
  5
27F
330
679
100
AcDbEntity
  8
GTS
100
AcDbBlockReference
  2
D12
 10
2.154
 20
1.739
 30
0.0
  0
INSERT
  5
280
330
679
100
AcDbEntity
  8
GTS
100
AcDbBlockReference
  2
D12
 10
2.189
 20
1.739
 30
0.0
  0
INSERT
  5
281
330
679
100
AcDbEntity
  8
GTS
100
AcDbBlockReference
  2
D12
 10
2.273
 20
1.219
 30
0.0
  0
INSERT
  5
282
330
679
100
AcDbEntity
  8
GTS
100
AcDbBlockReference
  2
D12
 10
2.238
 20
1.219
 30
0.0
  0
INSERT
  5
283
330
679
100
AcDbEntity
  8
GTS
100
AcDbBlockReference
  2
D12
 10
0.913
 20
2.511
 30
0.0
  0
INSERT
  5
284
330
679
100
AcDbEntity
  8
GTS
100
AcDbBlockReference
  2
D12
 10
0.878
 20
2.511
 30
0.0
  0
INSERT
  5
285
330
679
100
AcDbEntity
  8
GTS
100
AcDbBlockReference
  2
D12
 10
1.969
 20
1.835
 30
0.0
  0
INSERT
  5
286
330
679
100
AcDbEntity
  8
GTS
100
AcDbBlockReference
  2
D12
 10
1.934
 20
1.835
 30
0.0
  0
INSERT
  5
287
330
679
100
AcDbEntity
  8
GTS
100
AcDbBlockReference
  2
D12
 10
1.969
 20
1.939
 30
0.0
  0
INSERT
  5
288
330
679
100
AcDbEntity
  8
GTS
100
AcDbBlockReference
  2
D12
 10
1.934
 20
1.939
 30
0.0
  0
INSERT
  5
289
330
679
100
AcDbEntity
  8
GTS
100
AcDbBlockReference
  2
D12
 10
1.961
 20
2.209
 30
0.0
  0
INSERT
  5
28A
330
679
100
AcDbEntity
  8
GTS
100
AcDbBlockReference
  2
D12
 10
1.926
 20
2.209
 30
0.0
  0
INSERT
  5
28B
330
679
100
AcDbEntity
  8
GTS
100
AcDbBlockReference
  2
D12
 10
1.241
 20
2.471
 30
0.0
  0
INSERT
  5
28C
330
679
100
AcDbEntity
  8
GTS
100
AcDbBlockReference
  2
D12
 10
1.206
 20
2.471
 30
0.0
  0
INSERT
  5
28D
330
679
100
AcDbEntity
  8
GTS
100
AcDbBlockReference
  2
D12
 10
1.556
 20
1.94
 30
0.0
  0
INSERT
  5
28E
330
679
100
AcDbEntity
  8
GTS
100
AcDbBlockReference
  2
D12
 10
1.521
 20
1.94
 30
0.0
  0
INSERT
  5
28F
330
679
100
AcDbEntity
  8
GTS
100
AcDbBlockReference
  2
D12
 10
2.493
 20
2.335
 30
0.0
  0
INSERT
  5
290
330
679
100
AcDbEntity
  8
GTS
100
AcDbBlockReference
  2
D12
 10
2.458
 20
2.335
 30
0.0
  0
INSERT
  5
291
330
679
100
AcDbEntity
  8
GTS
100
AcDbBlockReference
  2
D12
 10
1.993
 20
1.511
 30
0.0
  0
INSERT
  5
292
330
679
100
AcDbEntity
  8
GTS
100
AcDbBlockReference
  2
D12
 10
1.958
 20
1.511
 30
0.0
  0
INSERT
  5
293
330
679
100
AcDbEntity
  8
GTS
100
AcDbBlockReference
  2
D12
 10
3.425
 20
2.655
 30
0.0
  0
INSERT
  5
294
330
679
100
AcDbEntity
  8
GTS
100
AcDbBlockReference
  2
D12
 10
3.39
 20
2.655
 30
0.0
  0
INSERT
  5
295
330
679
100
AcDbEntity
  8
GTS
100
AcDbBlockReference
  2
D12
 10
1.125
 20
1.467
 30
0.0
  0
INSERT
  5
296
330
679
100
AcDbEntity
  8
GTS
100
AcDbBlockReference
  2
D12
 10
1.09
 20
1.467
 30
0.0
  0
INSERT
  5
297
330
679
100
AcDbEntity
  8
GTS
100
AcDbBlockReference
  2
D12
 10
1.242
 20
1.467
 30
0.0
  0
INSERT
  5
298
330
679
100
AcDbEntity
  8
GTS
100
AcDbBlockReference
  2
D12
 10
1.277
 20
1.467
 30
0.0
  0
INSERT
  5
299
330
679
100
AcDbEntity
  8
GTS
100
AcDbBlockReference
  2
D12
 10
1.597
 20
2.423
 30
0.0
  0
INSERT
  5
29A
330
679
100
AcDbEntity
  8
GTS
100
AcDbBlockReference
  2
D12
 10
1.562
 20
2.423
 30
0.0
  0
INSERT
  5
29B
330
679
100
AcDbEntity
  8
GTS
100
AcDbBlockReference
  2
D12
 10
1.969
 20
1.739
 30
0.0
  0
INSERT
  5
29C
330
679
100
AcDbEntity
  8
GTS
100
AcDbBlockReference
  2
D12
 10
1.934
 20
1.739
 30
0.0
  0
INSERT
  5
29D
330
679
100
AcDbEntity
  8
GTS
100
AcDbBlockReference
  2
D12
 10
2.062
 20
1.739
 30
0.0
  0
INSERT
  5
29E
330
679
100
AcDbEntity
  8
GTS
100
AcDbBlockReference
  2
D12
 10
2.097
 20
1.739
 30
0.0
  0
INSERT
  5
29F
330
679
100
AcDbEntity
  8
GTS
100
AcDbBlockReference
  2
D12
 10
2.154
 20
1.851
 30
0.0
  0
INSERT
  5
2A0
330
679
100
AcDbEntity
  8
GTS
100
AcDbBlockReference
  2
D12
 10
2.189
 20
1.851
 30
0.0
  0
INSERT
  5
2A1
330
679
100
AcDbEntity
  8
GTS
100
AcDbBlockReference
  2
D12
 10
1.166
 20
1.467
 30
0.0
  0
INSERT
  5
2A2
330
679
100
AcDbEntity
  8
GTS
100
AcDbBlockReference
  2
D12
 10
1.201
 20
1.467
 30
0.0
  0
INSERT
  5
2A3
330
679
100
AcDbEntity
  8
GTS
100
AcDbBlockReference
  2
D12
 10
4.233
 20
1.287
 30
0.0
  0
INSERT
  5
2A4
330
679
100
AcDbEntity
  8
GTS
100
AcDbBlockReference
  2
D12
 10
4.198
 20
1.287
 30
0.0
  0
INSERT
  5
2A5
330
679
100
AcDbEntity
  8
GTS
100
AcDbBlockReference
  2
D12
 10
1.698
 20
1.683
 30
0.0
  0
INSERT
  5
2A6
330
679
100
AcDbEntity
  8
GTS
100
AcDbBlockReference
  2
D12
 10
1.733
 20
1.683
 30
0.0
  0
INSERT
  5
2A7
330
679
100
AcDbEntity
  8
GTS
100
AcDbBlockReference
  2
D12
 10
1.397
 20
1.683
 30
0.0
  0
INSERT
  5
2A8
330
679
100
AcDbEntity
  8
GTS
100
AcDbBlockReference
  2
D12
 10
1.362
 20
1.683
 30
0.0
  0
INSERT
  5
2A9
330
679
100
AcDbEntity
  8
GTS
100
AcDbBlockReference
  2
D12
 10
1.397
 20
1.727
 30
0.0
  0
INSERT
  5
2AA
330
679
100
AcDbEntity
  8
GTS
100
AcDbBlockReference
  2
D12
 10
1.362
 20
1.727
 30
0.0
  0
INSERT
  5
2AB
330
679
100
AcDbEntity
  8
GTS
100
AcDbBlockReference
  2
D12
 10
1.694
 20
1.531
 30
0.0
  0
INSERT
  5
2AC
330
679
100
AcDbEntity
  8
GTS
100
AcDbBlockReference
  2
D12
 10
1.729
 20
1.531
 30
0.0
  0
INSERT
  5
2AD
330
679
100
AcDbEntity
  8
GTS
100
AcDbBlockReference
  2
D13
 10
2.859
 20
2.36
 30
0.0
  0
INSERT
  5
2AE
330
679
100
AcDbEntity
  8
GTS
100
AcDbBlockReference
  2
D13
 10
2.859
 20
2.325
 30
0.0
  0
INSERT
  5
2AF
330
679
100
AcDbEntity
  8
GTS
100
AcDbBlockReference
  2
D13
 10
3.047
 20
1.205
 30
0.0
  0
INSERT
  5
2B0
330
679
100
AcDbEntity
  8
GTS
100
AcDbBlockReference
  2
D13
 10
3.047
 20
1.24
 30
0.0
  0
INSERT
  5
2B1
330
679
100
AcDbEntity
  8
GTS
100
AcDbBlockReference
  2
D13
 10
3.231
 20
1.772
 30
0.0
  0
INSERT
  5
2B2
330
679
100
AcDbEntity
  8
GTS
100
AcDbBlockReference
  2
D13
 10
3.231
 20
1.737
 30
0.0
  0
INSERT
  5
2B3
330
679
100
AcDbEntity
  8
GTS
100
AcDbBlockReference
  2
D13
 10
2.247
 20
1.309
 30
0.0
  0
INSERT
  5
2B4
330
679
100
AcDbEntity
  8
GTS
100
AcDbBlockReference
  2
D13
 10
2.247
 20
1.344
 30
0.0
  0
INSERT
  5
2B5
330
679
100
AcDbEntity
  8
GTS
100
AcDbBlockReference
  2
D13
 10
2.155
 20
1.549
 30
0.0
  0
INSERT
  5
2B6
330
679
100
AcDbEntity
  8
GTS
100
AcDbBlockReference
  2
D13
 10
2.155
 20
1.584
 30
0.0
  0
INSERT
  5
2B7
330
679
100
AcDbEntity
  8
GTS
100
AcDbBlockReference
  2
D13
 10
2.939
 20
2.36
 30
0.0
  0
INSERT
  5
2B8
330
679
100
AcDbEntity
  8
GTS
100
AcDbBlockReference
  2
D13
 10
2.939
 20
2.325
 30
0.0
  0
INSERT
  5
2B9
330
679
100
AcDbEntity
  8
GTS
100
AcDbBlockReference
  2
D13
 10
2.975
 20
1.205
 30
0.0
  0
INSERT
  5
2BA
330
679
100
AcDbEntity
  8
GTS
100
AcDbBlockReference
  2
D13
 10
2.975
 20
1.24
 30
0.0
  0
INSERT
  5
2BB
330
679
100
AcDbEntity
  8
GTS
100
AcDbBlockReference
  2
D13
 10
3.231
 20
1.641
 30
0.0
  0
INSERT
  5
2BC
330
679
100
AcDbEntity
  8
GTS
100
AcDbBlockReference
  2
D13
 10
3.231
 20
1.676
 30
0.0
  0
INSERT
  5
2BD
330
679
100
AcDbEntity
  8
GTS
100
AcDbBlockReference
  2
D13
 10
2.415
 20
1.205
 30
0.0
  0
INSERT
  5
2BE
330
679
100
AcDbEntity
  8
GTS
100
AcDbBlockReference
  2
D13
 10
2.415
 20
1.24
 30
0.0
  0
INSERT
  5
2BF
330
679
100
AcDbEntity
  8
GTS
100
AcDbBlockReference
  2
D13
 10
2.391
 20
2.345
 30
0.0
  0
INSERT
  5
2C0
330
679
100
AcDbEntity
  8
GTS
100
AcDbBlockReference
  2
D13
 10
2.391
 20
2.38
 30
0.0
  0
INSERT
  5
2C1
330
679
100
AcDbEntity
  8
GTS
100
AcDbBlockReference
  2
D13
 10
2.183
 20
2.329
 30
0.0
  0
INSERT
  5
2C2
330
679
100
AcDbEntity
  8
GTS
100
AcDbBlockReference
  2
D13
 10
2.183
 20
2.364
 30
0.0
  0
INSERT
  5
2C3
330
679
100
AcDbEntity
  8
GTS
100
AcDbBlockReference
  2
D13
 10
0.875
 20
1.961
 30
0.0
  0
INSERT
  5
2C4
330
679
100
AcDbEntity
  8
GTS
100
AcDbBlockReference
  2
D13
 10
0.875
 20
1.996
 30
0.0
  0
INSERT
  5
2C5
330
679
100
AcDbEntity
  8
GTS
100
AcDbBlockReference
  2
D13
 10
1.526
 20
1.706
 30
0.0
  0
INSERT
  5
2C6
330
679
100
AcDbEntity
  8
GTS
100
AcDbBlockReference
  2
D13
 10
1.526
 20
1.741
 30
0.0
  0
INSERT
  5
2C7
330
679
100
AcDbEntity
  8
GTS
100
AcDbBlockReference
  2
D13
 10
1.351
 20
1.477
 30
0.0
  0
INSERT
  5
2C8
330
679
100
AcDbEntity
  8
GTS
100
AcDbBlockReference
  2
D13
 10
1.351
 20
1.512
 30
0.0
  0
INSERT
  5
2C9
330
679
100
AcDbEntity
  8
GTS
100
AcDbBlockReference
  2
D13
 10
1.575
 20
1.705
 30
0.0
  0
INSERT
  5
2CA
330
679
100
AcDbEntity
  8
GTS
100
AcDbBlockReference
  2
D13
 10
1.575
 20
1.74
 30
0.0
  0
INSERT
  5
2CB
330
679
100
AcDbEntity
  8
GTS
100
AcDbBlockReference
  2
D13
 10
1.907
 20
1.493
 30
0.0
  0
INSERT
  5
2CC
330
679
100
AcDbEntity
  8
GTS
100
AcDbBlockReference
  2
D13
 10
1.907
 20
1.528
 30
0.0
  0
INSERT
  5
2CD
330
679
100
AcDbEntity
  8
GTS
100
AcDbBlockReference
  2
D13
 10
1.711
 20
2.425
 30
0.0
  0
INSERT
  5
2CE
330
679
100
AcDbEntity
  8
GTS
100
AcDbBlockReference
  2
D13
 10
1.711
 20
2.46
 30
0.0
  0
INSERT
  5
2CF
330
679
100
AcDbEntity
  8
GTS
100
AcDbBlockReference
  2
D13
 10
2.263
 20
2.149
 30
0.0
  0
INSERT
  5
2D0
330
679
100
AcDbEntity
  8
GTS
100
AcDbBlockReference
  2
D13
 10
2.263
 20
2.184
 30
0.0
  0
INSERT
  5
2D1
330
679
100
AcDbEntity
  8
GTS
100
AcDbBlockReference
  2
D13
 10
2.163
 20
2.134
 30
0.0
  0
INSERT
  5
2D2
330
679
100
AcDbEntity
  8
GTS
100
AcDbBlockReference
  2
D13
 10
2.163
 20
2.099
 30
0.0
  0
INSERT
  5
2D3
330
679
100
AcDbEntity
  8
GTS
100
AcDbBlockReference
  2
D13
 10
0.939
 20
1.352
 30
0.0
  0
INSERT
  5
2D4
330
679
100
AcDbEntity
  8
GTS
100
AcDbBlockReference
  2
D13
 10
0.939
 20
1.317
 30
0.0
  0
INSERT
  5
2D5
330
679
100
AcDbEntity
  8
GTS
100
AcDbBlockReference
  2
D13
 10
0.887
 20
1.317
 30
0.0
  0
INSERT
  5
2D6
330
679
100
AcDbEntity
  8
GTS
100
AcDbBlockReference
  2
D13
 10
0.887
 20
1.352
 30
0.0
  0
INSERT
  5
2D7
330
679
100
AcDbEntity
  8
GTS
100
AcDbBlockReference
  2
D13
 10
1.631
 20
1.665
 30
0.0
  0
INSERT
  5
2D8
330
679
100
AcDbEntity
  8
GTS
100
AcDbBlockReference
  2
D13
 10
1.631
 20
1.7
 30
0.0
  0
INSERT
  5
2D9
330
679
100
AcDbEntity
  8
GTS
100
AcDbBlockReference
  2
D14
 10
1.475
 20
2.463
 30
0.0
  0
INSERT
  5
2DA
330
679
100
AcDbEntity
  8
GTS
100
AcDbBlockReference
  2
D14
 10
1.475
 20
2.582
 30
0.0
  0
INSERT
  5
2DB
330
679
100
AcDbEntity
  8
GTS
100
AcDbBlockReference
  2
D14
 10
3.663
 20
1.999
 30
0.0
  0
INSERT
  5
2DC
330
679
100
AcDbEntity
  8
GTS
100
AcDbBlockReference
  2
D14
 10
3.663
 20
2.118
 30
0.0
  0
INSERT
  5
2DD
330
679
100
AcDbEntity
  8
GTS
100
AcDbBlockReference
  2
D14
 10
1.347
 20
2.463
 30
0.0
  0
INSERT
  5
2DE
330
679
100
AcDbEntity
  8
GTS
100
AcDbBlockReference
  2
D14
 10
1.347
 20
2.582
 30
0.0
  0
INSERT
  5
2DF
330
679
100
AcDbEntity
  8
GTS
100
AcDbBlockReference
  2
D14
 10
4.219
 20
1.351
 30
0.0
  0
INSERT
  5
2E0
330
679
100
AcDbEntity
  8
GTS
100
AcDbBlockReference
  2
D14
 10
4.219
 20
1.47
 30
0.0
  0
INSERT
  5
2E1
330
679
100
AcDbEntity
  8
GTS
100
AcDbBlockReference
  2
D15
 10
4.004
 20
1.371
 30
0.0
  0
INSERT
  5
2E2
330
679
100
AcDbEntity
  8
GTS
100
AcDbBlockReference
  2
D15
 10
4.074
 20
1.371
 30
0.0
  0
INSERT
  5
2E3
330
679
100
AcDbEntity
  8
GTS
100
AcDbBlockReference
  2
D16
 10
1.525
 20
1.051
 30
0.0
  0
INSERT
  5
2E4
330
679
100
AcDbEntity
  8
GTS
100
AcDbBlockReference
  2
D16
 10
1.525
 20
0.878
 30
0.0
  0
INSERT
  5
2E5
330
679
100
AcDbEntity
  8
GTS
100
AcDbBlockReference
  2
D17
 10
1.807
 20
1.544
 30
0.0
  0
INSERT
  5
2E6
330
679
100
AcDbEntity
  8
GTS
100
AcDbBlockReference
  2
D17
 10
1.807
 20
1.677
 30
0.0
  0
INSERT
  5
2E7
330
679
100
AcDbEntity
  8
GTS
100
AcDbBlockReference
  2
D17
 10
3.915
 20
1.481
 30
0.0
  0
INSERT
  5
2E8
330
679
100
AcDbEntity
  8
GTS
100
AcDbBlockReference
  2
D17
 10
3.915
 20
1.348
 30
0.0
  0
INSERT
  5
2E9
330
679
100
AcDbEntity
  8
GTS
100
AcDbBlockReference
  2
D18
 10
4.044
 20
1.463
 30
0.0
  0
INSERT
  5
2EA
330
679
100
AcDbEntity
  8
GTS
100
AcDbBlockReference
  2
D19
 10
4.136
 20
1.463
 30
0.0
  0
INSERT
  5
2EB
330
679
100
AcDbEntity
  8
GTS
100
AcDbBlockReference
  2
D20
 10
3.743
 20
2.263
 30
0.0
  0
INSERT
  5
2EC
330
679
100
AcDbEntity
  8
GTS
100
AcDbBlockReference
  2
D20
 10
3.583
 20
2.263
 30
0.0
  0
INSERT
  5
2ED
330
679
100
AcDbEntity
  8
GTS
100
AcDbBlockReference
  2
D21
 10
1.358
 20
2.345
 30
0.0
  0
INSERT
  5
2EE
330
679
100
AcDbEntity
  8
GTS
100
AcDbBlockReference
  2
D21
 10
1.205
 20
2.345
 30
0.0
  0
INSERT
  5
2EF
330
679
100
AcDbEntity
  8
GTS
100
AcDbBlockReference
  2
D22
 10
0.975
 20
1.991
 30
0.0
  0
INSERT
  5
2F0
330
679
100
AcDbEntity
  8
GTS
100
AcDbBlockReference
  2
D22
 10
0.975
 20
1.838
 30
0.0
  0
INSERT
  5
2F1
330
679
100
AcDbEntity
  8
GTS
100
AcDbBlockReference
  2
D23
 10
1.653
 20
1.8
 30
0.0
  0
INSERT
  5
2F2
330
679
100
AcDbEntity
  8
GTS
100
AcDbBlockReference
  2
D23
 10
1.653
 20
1.826
 30
0.0
  0
INSERT
  5
2F3
330
679
100
AcDbEntity
  8
GTS
100
AcDbBlockReference
  2
D23
 10
1.653
 20
1.851
 30
0.0
  0
INSERT
  5
2F4
330
679
100
AcDbEntity
  8
GTS
100
AcDbBlockReference
  2
D23
 10
1.653
 20
1.877
 30
0.0
  0
INSERT
  5
2F5
330
679
100
AcDbEntity
  8
GTS
100
AcDbBlockReference
  2
D23
 10
1.486
 20
1.877
 30
0.0
  0
INSERT
  5
2F6
330
679
100
AcDbEntity
  8
GTS
100
AcDbBlockReference
  2
D23
 10
1.486
 20
1.851
 30
0.0
  0
INSERT
  5
2F7
330
679
100
AcDbEntity
  8
GTS
100
AcDbBlockReference
  2
D23
 10
1.486
 20
1.826
 30
0.0
  0
INSERT
  5
2F8
330
679
100
AcDbEntity
  8
GTS
100
AcDbBlockReference
  2
D23
 10
1.486
 20
1.8
 30
0.0
  0
INSERT
  5
2F9
330
679
100
AcDbEntity
  8
GTS
100
AcDbBlockReference
  2
D24
 10
3.994
 20
1.308
 30
0.0
  0
INSERT
  5
2FA
330
679
100
AcDbEntity
  8
GTS
100
AcDbBlockReference
  2
D24
 10
3.994
 20
1.271
 30
0.0
  0
INSERT
  5
2FB
330
679
100
AcDbEntity
  8
GTS
100
AcDbBlockReference
  2
D24
 10
3.994
 20
1.233
 30
0.0
  0
INSERT
  5
2FC
330
679
100
AcDbEntity
  8
GTS
100
AcDbBlockReference
  2
D24
 10
4.085
 20
1.233
 30
0.0
  0
INSERT
  5
2FD
330
679
100
AcDbEntity
  8
GTS
100
AcDbBlockReference
  2
D24
 10
4.085
 20
1.271
 30
0.0
  0
INSERT
  5
2FE
330
679
100
AcDbEntity
  8
GTS
100
AcDbBlockReference
  2
D24
 10
4.085
 20
1.308
 30
0.0
  0
INSERT
  5
2FF
330
679
100
AcDbEntity
  8
GTS
100
AcDbBlockReference
  2
D25
 10
3.889
 20
2.086
 30
0.0
  0
INSERT
  5
300
330
679
100
AcDbEntity
  8
GTS
100
AcDbBlockReference
  2
D25
 10
3.889
 20
1.995
 30
0.0
  0
INSERT
  5
301
330
679
100
AcDbEntity
  8
GTS
100
AcDbBlockReference
  2
D25
 10
3.889
 20
1.904
 30
0.0
  0
INSERT
  5
302
330
679
100
AcDbEntity
  8
GTS
100
AcDbBlockReference
  2
D26
 10
4.133
 20
1.995
 30
0.0
  0
INSERT
  5
303
330
679
100
AcDbEntity
  8
GTS
100
AcDbBlockReference
  2
D27
 10
1.427
 20
1.575
 30
0.0
  0
INSERT
  5
304
330
679
100
AcDbEntity
  8
GTS
100
AcDbBlockReference
  2
D27
 10
1.427
 20
1.556
 30
0.0
  0
INSERT
  5
305
330
679
100
AcDbEntity
  8
GTS
100
AcDbBlockReference
  2
D27
 10
1.427
 20
1.536
 30
0.0
  0
INSERT
  5
306
330
679
100
AcDbEntity
  8
GTS
100
AcDbBlockReference
  2
D27
 10
1.427
 20
1.516
 30
0.0
  0
INSERT
  5
307
330
679
100
AcDbEntity
  8
GTS
100
AcDbBlockReference
  2
D27
 10
1.427
 20
1.497
 30
0.0
  0
INSERT
  5
308
330
679
100
AcDbEntity
  8
GTS
100
AcDbBlockReference
  2
D27
 10
1.427
 20
1.477
 30
0.0
  0
INSERT
  5
309
330
679
100
AcDbEntity
  8
GTS
100
AcDbBlockReference
  2
D27
 10
1.427
 20
1.457
 30
0.0
  0
INSERT
  5
30A
330
679
100
AcDbEntity
  8
GTS
100
AcDbBlockReference
  2
D27
 10
1.427
 20
1.438
 30
0.0
  0
INSERT
  5
30B
330
679
100
AcDbEntity
  8
GTS
100
AcDbBlockReference
  2
D27
 10
1.62
 20
1.438
 30
0.0
  0
INSERT
  5
30C
330
679
100
AcDbEntity
  8
GTS
100
AcDbBlockReference
  2
D27
 10
1.62
 20
1.457
 30
0.0
  0
INSERT
  5
30D
330
679
100
AcDbEntity
  8
GTS
100
AcDbBlockReference
  2
D27
 10
1.62
 20
1.477
 30
0.0
  0
INSERT
  5
30E
330
679
100
AcDbEntity
  8
GTS
100
AcDbBlockReference
  2
D27
 10
1.62
 20
1.497
 30
0.0
  0
INSERT
  5
30F
330
679
100
AcDbEntity
  8
GTS
100
AcDbBlockReference
  2
D27
 10
1.62
 20
1.516
 30
0.0
  0
INSERT
  5
310
330
679
100
AcDbEntity
  8
GTS
100
AcDbBlockReference
  2
D27
 10
1.62
 20
1.536
 30
0.0
  0
INSERT
  5
311
330
679
100
AcDbEntity
  8
GTS
100
AcDbBlockReference
  2
D27
 10
1.62
 20
1.556
 30
0.0
  0
INSERT
  5
312
330
679
100
AcDbEntity
  8
GTS
100
AcDbBlockReference
  2
D27
 10
1.62
 20
1.575
 30
0.0
  0
INSERT
  5
313
330
679
100
AcDbEntity
  8
GTS
100
AcDbBlockReference
  2
D28
 10
1.455
 20
1.41
 30
0.0
  0
INSERT
  5
314
330
679
100
AcDbEntity
  8
GTS
100
AcDbBlockReference
  2
D28
 10
1.474
 20
1.41
 30
0.0
  0
INSERT
  5
315
330
679
100
AcDbEntity
  8
GTS
100
AcDbBlockReference
  2
D28
 10
1.494
 20
1.41
 30
0.0
  0
INSERT
  5
316
330
679
100
AcDbEntity
  8
GTS
100
AcDbBlockReference
  2
D28
 10
1.514
 20
1.41
 30
0.0
  0
INSERT
  5
317
330
679
100
AcDbEntity
  8
GTS
100
AcDbBlockReference
  2
D28
 10
1.533
 20
1.41
 30
0.0
  0
INSERT
  5
318
330
679
100
AcDbEntity
  8
GTS
100
AcDbBlockReference
  2
D28
 10
1.553
 20
1.41
 30
0.0
  0
INSERT
  5
319
330
679
100
AcDbEntity
  8
GTS
100
AcDbBlockReference
  2
D28
 10
1.573
 20
1.41
 30
0.0
  0
INSERT
  5
31A
330
679
100
AcDbEntity
  8
GTS
100
AcDbBlockReference
  2
D28
 10
1.592
 20
1.41
 30
0.0
  0
INSERT
  5
31B
330
679
100
AcDbEntity
  8
GTS
100
AcDbBlockReference
  2
D28
 10
1.592
 20
1.603
 30
0.0
  0
INSERT
  5
31C
330
679
100
AcDbEntity
  8
GTS
100
AcDbBlockReference
  2
D28
 10
1.573
 20
1.603
 30
0.0
  0
INSERT
  5
31D
330
679
100
AcDbEntity
  8
GTS
100
AcDbBlockReference
  2
D28
 10
1.553
 20
1.603
 30
0.0
  0
INSERT
  5
31E
330
679
100
AcDbEntity
  8
GTS
100
AcDbBlockReference
  2
D28
 10
1.533
 20
1.603
 30
0.0
  0
INSERT
  5
31F
330
679
100
AcDbEntity
  8
GTS
100
AcDbBlockReference
  2
D28
 10
1.514
 20
1.603
 30
0.0
  0
INSERT
  5
320
330
679
100
AcDbEntity
  8
GTS
100
AcDbBlockReference
  2
D28
 10
1.494
 20
1.603
 30
0.0
  0
INSERT
  5
321
330
679
100
AcDbEntity
  8
GTS
100
AcDbBlockReference
  2
D28
 10
1.474
 20
1.603
 30
0.0
  0
INSERT
  5
322
330
679
100
AcDbEntity
  8
GTS
100
AcDbBlockReference
  2
D28
 10
1.455
 20
1.603
 30
0.0
  0
INSERT
  5
323
330
679
100
AcDbEntity
  8
GTS
100
AcDbBlockReference
  2
D29
 10
1.523
 20
1.507
 30
0.0
  0
INSERT
  5
324
330
679
100
AcDbEntity
  8
GTS
100
AcDbBlockReference
  2
D30
 10
3.433
 20
2.772
 30
0.0
  0
INSERT
  5
325
330
679
100
AcDbEntity
  8
GTS
100
AcDbBlockReference
  2
D30
 10
3.407
 20
2.772
 30
0.0
  0
INSERT
  5
326
330
679
100
AcDbEntity
  8
GTS
100
AcDbBlockReference
  2
D30
 10
3.382
 20
2.772
 30
0.0
  0
INSERT
  5
327
330
679
100
AcDbEntity
  8
GTS
100
AcDbBlockReference
  2
D30
 10
3.382
 20
2.705
 30
0.0
  0
INSERT
  5
328
330
679
100
AcDbEntity
  8
GTS
100
AcDbBlockReference
  2
D30
 10
3.433
 20
2.705
 30
0.0
  0
INSERT
  5
329
330
679
100
AcDbEntity
  8
GTS
100
AcDbBlockReference
  2
D31
 10
1.264
 20
1.903
 30
0.0
  0
INSERT
  5
32A
330
679
100
AcDbEntity
  8
GTS
100
AcDbBlockReference
  2
D31
 10
1.181
 20
1.903
 30
0.0
  0
INSERT
  5
32B
330
679
100
AcDbEntity
  8
GTS
100
AcDbBlockReference
  2
D31
 10
1.264
 20
1.829
 30
0.0
  0
INSERT
  5
32C
330
679
100
AcDbEntity
  8
GTS
100
AcDbBlockReference
  2
D31
 10
1.181
 20
1.829
 30
0.0
  0
INSERT
  5
32D
330
679
100
AcDbEntity
  8
GTS
100
AcDbBlockReference
  2
D31
 10
1.264
 20
2.051
 30
0.0
  0
INSERT
  5
32E
330
679
100
AcDbEntity
  8
GTS
100
AcDbBlockReference
  2
D31
 10
1.181
 20
2.051
 30
0.0
  0
INSERT
  5
32F
330
679
100
AcDbEntity
  8
GTS
100
AcDbBlockReference
  2
D31
 10
0.934
 20
1.403
 30
0.0
  0
INSERT
  5
330
330
679
100
AcDbEntity
  8
GTS
100
AcDbBlockReference
  2
D31
 10
1.017
 20
1.403
 30
0.0
  0
INSERT
  5
331
330
679
100
AcDbEntity
  8
GTS
100
AcDbBlockReference
  2
D31
 10
1.264
 20
1.977
 30
0.0
  0
INSERT
  5
332
330
679
100
AcDbEntity
  8
GTS
100
AcDbBlockReference
  2
D31
 10
1.181
 20
1.977
 30
0.0
  0
INSERT
  5
333
330
679
100
AcDbEntity
  8
GTS
100
AcDbBlockReference
  2
D31
 10
0.938
 20
1.267
 30
0.0
  0
INSERT
  5
334
330
679
100
AcDbEntity
  8
GTS
100
AcDbBlockReference
  2
D31
 10
1.021
 20
1.267
 30
0.0
  0
INSERT
  5
335
330
679
100
AcDbEntity
  8
GTS
100
AcDbBlockReference
  2
D32
 10
2.016
 20
1.291
 30
0.0
  0
INSERT
  5
336
330
679
100
AcDbEntity
  8
GTS
100
AcDbBlockReference
  2
D32
 10
2.103
 20
1.291
 30
0.0
  0
INSERT
  5
337
330
679
100
AcDbEntity
  8
GTS
100
AcDbBlockReference
  2
D32
 10
2.119
 20
2.291
 30
0.0
  0
INSERT
  5
338
330
679
100
AcDbEntity
  8
GTS
100
AcDbBlockReference
  2
D32
 10
2.032
 20
2.291
 30
0.0
  0
INSERT
  5
339
330
679
100
AcDbEntity
  8
GTS
100
AcDbBlockReference
  2
D32
 10
2.016
 20
1.215
 30
0.0
  0
INSERT
  5
33A
330
679
100
AcDbEntity
  8
GTS
100
AcDbBlockReference
  2
D32
 10
2.103
 20
1.215
 30
0.0
  0
INSERT
  5
33B
330
679
100
AcDbEntity
  8
GTS
100
AcDbBlockReference
  2
D32
 10
2.248
 20
2.463
 30
0.0
  0
INSERT
  5
33C
330
679
100
AcDbEntity
  8
GTS
100
AcDbBlockReference
  2
D32
 10
2.335
 20
2.463
 30
0.0
  0
INSERT
  5
33D
330
679
100
AcDbEntity
  8
GTS
100
AcDbBlockReference
  2
D32
 10
1.611
 20
0.791
 30
0.0
  0
INSERT
  5
33E
330
679
100
AcDbEntity
  8
GTS
100
AcDbBlockReference
  2
D32
 10
1.524
 20
0.791
 30
0.0
  0
INSERT
  5
33F
330
679
100
AcDbEntity
  8
GTS
100
AcDbBlockReference
  2
D33
 10
4.146
 20
1.651
 30
0.0
  0
INSERT
  5
340
330
679
100
AcDbEntity
  8
GTS
100
AcDbBlockReference
  2
D33
 10
3.909
 20
1.651
 30
0.0
  0
INSERT
  5
341
330
679
100
AcDbEntity
  8
GTS
100
AcDbBlockReference
  2
D34
 10
1.851
 20
1.751
 30
0.0
  0
INSERT
  5
342
330
679
100
AcDbEntity
  8
GTS
100
AcDbBlockReference
  2
D34
 10
1.851
 20
1.826
 30
0.0
  0
INSERT
  5
343
330
679
100
AcDbEntity
  8
GTS
100
AcDbBlockReference
  2
D34
 10
1.764
 20
1.789
 30
0.0
  0
INSERT
  5
344
330
679
100
AcDbEntity
  8
GTS
100
AcDbBlockReference
  2
D35
 10
1.831
 20
2.152
 30
0.0
  0
INSERT
  5
345
330
679
100
AcDbEntity
  8
GTS
100
AcDbBlockReference
  2
D35
 10
1.831
 20
2.222
 30
0.0
  0
INSERT
  5
346
330
679
100
AcDbEntity
  8
GTS
100
AcDbBlockReference
  2
D35
 10
3.935
 20
1.208
 30
0.0
  0
INSERT
  5
347
330
679
100
AcDbEntity
  8
GTS
100
AcDbBlockReference
  2
D35
 10
3.935
 20
1.278
 30
0.0
  0
INSERT
  5
348
330
679
100
AcDbEntity
  8
GTS
100
AcDbBlockReference
  2
D36
 10
3.808
 20
1.207
 30
0.0
  0
INSERT
  5
349
330
679
100
AcDbEntity
  8
GTS
100
AcDbBlockReference
  2
D36
 10
3.878
 20
1.207
 30
0.0
  0
INSERT
  5
34A
330
679
100
AcDbEntity
  8
GTS
100
AcDbBlockReference
  2
D37
 10
1.428
 20
1.275
 30
0.0
  0
INSERT
  5
34B
330
679
100
AcDbEntity
  8
GTS
100
AcDbBlockReference
  2
D37
 10
1.403
 20
1.25
 30
0.0
  0
INSERT
  5
34C
330
679
100
AcDbEntity
  8
GTS
100
AcDbBlockReference
  2
D38
 10
0.887
 20
2.747
 30
0.0
  0
INSERT
  5
34D
330
679
100
AcDbEntity
  8
GTS
100
AcDbBlockReference
  2
D38
 10
1.218
 20
2.747
 30
0.0
  0
INSERT
  5
34E
330
679
100
AcDbEntity
  8
GTS
100
AcDbBlockReference
  2
D38
 10
0.887
 20
2.57
 30
0.0
  0
INSERT
  5
34F
330
679
100
AcDbEntity
  8
GTS
100
AcDbBlockReference
  2
D38
 10
1.218
 20
2.57
 30
0.0
  0
INSERT
  5
350
330
679
100
AcDbEntity
  8
GTS
100
AcDbBlockReference
  2
D38
 10
0.887
 20
2.659
 30
0.0
  0
INSERT
  5
351
330
679
100
AcDbEntity
  8
GTS
100
AcDbBlockReference
  2
D39
 10
1.606
 20
2.279
 30
0.0
  0
INSERT
  5
352
330
679
100
AcDbEntity
  8
GTS
100
AcDbBlockReference
  2
D39
 10
1.606
 20
2.311
 30
0.0
  0
INSERT
  5
353
330
679
100
AcDbEntity
  8
GTS
100
AcDbBlockReference
  2
D39
 10
1.606
 20
2.342
 30
0.0
  0
INSERT
  5
354
330
679
100
AcDbEntity
  8
GTS
100
AcDbBlockReference
  2
D39
 10
1.606
 20
2.374
 30
0.0
  0
INSERT
  5
355
330
679
100
AcDbEntity
  8
GTS
100
AcDbBlockReference
  2
D39
 10
1.553
 20
2.374
 30
0.0
  0
INSERT
  5
356
330
679
100
AcDbEntity
  8
GTS
100
AcDbBlockReference
  2
D39
 10
1.553
 20
2.342
 30
0.0
  0
INSERT
  5
357
330
679
100
AcDbEntity
  8
GTS
100
AcDbBlockReference
  2
D39
 10
1.553
 20
2.311
 30
0.0
  0
INSERT
  5
358
330
679
100
AcDbEntity
  8
GTS
100
AcDbBlockReference
  2
D39
 10
1.553
 20
2.279
 30
0.0
  0
INSERT
  5
359
330
679
100
AcDbEntity
  8
GTS
100
AcDbBlockReference
  2
D39
 10
1.481
 20
2.217
 30
0.0
  0
INSERT
  5
35A
330
679
100
AcDbEntity
  8
GTS
100
AcDbBlockReference
  2
D39
 10
1.481
 20
2.185
 30
0.0
  0
INSERT
  5
35B
330
679
100
AcDbEntity
  8
GTS
100
AcDbBlockReference
  2
D39
 10
1.481
 20
2.154
 30
0.0
  0
INSERT
  5
35C
330
679
100
AcDbEntity
  8
GTS
100
AcDbBlockReference
  2
D39
 10
1.481
 20
2.122
 30
0.0
  0
INSERT
  5
35D
330
679
100
AcDbEntity
  8
GTS
100
AcDbBlockReference
  2
D39
 10
1.534
 20
2.122
 30
0.0
  0
INSERT
  5
35E
330
679
100
AcDbEntity
  8
GTS
100
AcDbBlockReference
  2
D39
 10
1.534
 20
2.154
 30
0.0
  0
INSERT
  5
35F
330
679
100
AcDbEntity
  8
GTS
100
AcDbBlockReference
  2
D39
 10
1.534
 20
2.185
 30
0.0
  0
INSERT
  5
360
330
679
100
AcDbEntity
  8
GTS
100
AcDbBlockReference
  2
D39
 10
1.534
 20
2.217
 30
0.0
  0
INSERT
  5
361
330
679
100
AcDbEntity
  8
GTS
100
AcDbBlockReference
  2
D39
 10
1.328
 20
2.004
 30
0.0
  0
INSERT
  5
362
330
679
100
AcDbEntity
  8
GTS
100
AcDbBlockReference
  2
D39
 10
1.328
 20
1.972
 30
0.0
  0
INSERT
  5
363
330
679
100
AcDbEntity
  8
GTS
100
AcDbBlockReference
  2
D39
 10
1.328
 20
1.941
 30
0.0
  0
INSERT
  5
364
330
679
100
AcDbEntity
  8
GTS
100
AcDbBlockReference
  2
D39
 10
1.328
 20
1.909
 30
0.0
  0
INSERT
  5
365
330
679
100
AcDbEntity
  8
GTS
100
AcDbBlockReference
  2
D39
 10
1.381
 20
1.909
 30
0.0
  0
INSERT
  5
366
330
679
100
AcDbEntity
  8
GTS
100
AcDbBlockReference
  2
D39
 10
1.381
 20
1.941
 30
0.0
  0
INSERT
  5
367
330
679
100
AcDbEntity
  8
GTS
100
AcDbBlockReference
  2
D39
 10
1.381
 20
1.972
 30
0.0
  0
INSERT
  5
368
330
679
100
AcDbEntity
  8
GTS
100
AcDbBlockReference
  2
D39
 10
1.381
 20
2.004
 30
0.0
  0
INSERT
  5
369
330
679
100
AcDbEntity
  8
GTS
100
AcDbBlockReference
  2
D39
 10
1.753
 20
1.986
 30
0.0
  0
INSERT
  5
36A
330
679
100
AcDbEntity
  8
GTS
100
AcDbBlockReference
  2
D39
 10
1.753
 20
1.954
 30
0.0
  0
INSERT
  5
36B
330
679
100
AcDbEntity
  8
GTS
100
AcDbBlockReference
  2
D39
 10
1.753
 20
1.923
 30
0.0
  0
INSERT
  5
36C
330
679
100
AcDbEntity
  8
GTS
100
AcDbBlockReference
  2
D39
 10
1.753
 20
1.891
 30
0.0
  0
INSERT
  5
36D
330
679
100
AcDbEntity
  8
GTS
100
AcDbBlockReference
  2
D39
 10
1.806
 20
1.891
 30
0.0
  0
INSERT
  5
36E
330
679
100
AcDbEntity
  8
GTS
100
AcDbBlockReference
  2
D39
 10
1.806
 20
1.923
 30
0.0
  0
INSERT
  5
36F
330
679
100
AcDbEntity
  8
GTS
100
AcDbBlockReference
  2
D39
 10
1.806
 20
1.954
 30
0.0
  0
INSERT
  5
370
330
679
100
AcDbEntity
  8
GTS
100
AcDbBlockReference
  2
D39
 10
1.806
 20
1.986
 30
0.0
  0
INSERT
  5
371
330
679
100
AcDbEntity
  8
GTS
100
AcDbBlockReference
  2
D39
 10
4.058
 20
2.151
 30
0.0
  0
INSERT
  5
372
330
679
100
AcDbEntity
  8
GTS
100
AcDbBlockReference
  2
D39
 10
4.058
 20
2.183
 30
0.0
  0
INSERT
  5
373
330
679
100
AcDbEntity
  8
GTS
100
AcDbBlockReference
  2
D39
 10
4.058
 20
2.214
 30
0.0
  0
INSERT
  5
374
330
679
100
AcDbEntity
  8
GTS
100
AcDbBlockReference
  2
D39
 10
4.058
 20
2.246
 30
0.0
  0
INSERT
  5
375
330
679
100
AcDbEntity
  8
GTS
100
AcDbBlockReference
  2
D39
 10
4.005
 20
2.246
 30
0.0
  0
INSERT
  5
376
330
679
100
AcDbEntity
  8
GTS
100
AcDbBlockReference
  2
D39
 10
4.005
 20
2.214
 30
0.0
  0
INSERT
  5
377
330
679
100
AcDbEntity
  8
GTS
100
AcDbBlockReference
  2
D39
 10
4.005
 20
2.183
 30
0.0
  0
INSERT
  5
378
330
679
100
AcDbEntity
  8
GTS
100
AcDbBlockReference
  2
D39
 10
4.005
 20
2.151
 30
0.0
  0
INSERT
  5
379
330
679
100
AcDbEntity
  8
GTS
100
AcDbBlockReference
  2
D40
 10
1.372
 20
1.858
 30
0.0
  0
INSERT
  5
37A
330
679
100
AcDbEntity
  8
GTS
100
AcDbBlockReference
  2
D40
 10
1.41
 20
1.778
 30
0.0
  0
INSERT
  5
37B
330
679
100
AcDbEntity
  8
GTS
100
AcDbBlockReference
  2
D40
 10
1.334
 20
1.778
 30
0.0
  0
INSERT
  5
37C
330
679
100
AcDbEntity
  8
GTS
100
AcDbBlockReference
  2
D40
 10
1.944
 20
1.307
 30
0.0
  0
INSERT
  5
37D
330
679
100
AcDbEntity
  8
GTS
100
AcDbBlockReference
  2
D40
 10
1.906
 20
1.387
 30
0.0
  0
INSERT
  5
37E
330
679
100
AcDbEntity
  8
GTS
100
AcDbBlockReference
  2
D40
 10
1.982
 20
1.387
 30
0.0
  0
INSERT
  5
37F
330
679
100
AcDbEntity
  8
GTS
100
AcDbBlockReference
  2
D40
 10
1.206
 20
1.655
 30
0.0
  0
INSERT
  5
380
330
679
100
AcDbEntity
  8
GTS
100
AcDbBlockReference
  2
D40
 10
1.244
 20
1.575
 30
0.0
  0
INSERT
  5
381
330
679
100
AcDbEntity
  8
GTS
100
AcDbBlockReference
  2
D40
 10
1.168
 20
1.575
 30
0.0
  0
INSERT
  5
382
330
679
100
AcDbEntity
  8
GTS
100
AcDbBlockReference
  2
D41
 10
3.077
 20
2.189
 30
0.0
  0
INSERT
  5
383
330
679
100
AcDbEntity
  8
GTS
100
AcDbBlockReference
  2
D41
 10
3.057
 20
2.189
 30
0.0
  0
INSERT
  5
384
330
679
100
AcDbEntity
  8
GTS
100
AcDbBlockReference
  2
D41
 10
3.038
 20
2.189
 30
0.0
  0
INSERT
  5
385
330
679
100
AcDbEntity
  8
GTS
100
AcDbBlockReference
  2
D41
 10
3.018
 20
2.189
 30
0.0
  0
INSERT
  5
386
330
679
100
AcDbEntity
  8
GTS
100
AcDbBlockReference
  2
D41
 10
2.998
 20
2.189
 30
0.0
  0
INSERT
  5
387
330
679
100
AcDbEntity
  8
GTS
100
AcDbBlockReference
  2
D41
 10
2.979
 20
2.189
 30
0.0
  0
INSERT
  5
388
330
679
100
AcDbEntity
  8
GTS
100
AcDbBlockReference
  2
D41
 10
2.959
 20
2.189
 30
0.0
  0
INSERT
  5
389
330
679
100
AcDbEntity
  8
GTS
100
AcDbBlockReference
  2
D41
 10
2.939
 20
2.189
 30
0.0
  0
INSERT
  5
38A
330
679
100
AcDbEntity
  8
GTS
100
AcDbBlockReference
  2
D41
 10
2.919
 20
2.189
 30
0.0
  0
INSERT
  5
38B
330
679
100
AcDbEntity
  8
GTS
100
AcDbBlockReference
  2
D41
 10
2.9
 20
2.189
 30
0.0
  0
INSERT
  5
38C
330
679
100
AcDbEntity
  8
GTS
100
AcDbBlockReference
  2
D41
 10
2.88
 20
2.189
 30
0.0
  0
INSERT
  5
38D
330
679
100
AcDbEntity
  8
GTS
100
AcDbBlockReference
  2
D41
 10
2.86
 20
2.189
 30
0.0
  0
INSERT
  5
38E
330
679
100
AcDbEntity
  8
GTS
100
AcDbBlockReference
  2
D41
 10
2.841
 20
2.189
 30
0.0
  0
INSERT
  5
38F
330
679
100
AcDbEntity
  8
GTS
100
AcDbBlockReference
  2
D41
 10
2.821
 20
2.189
 30
0.0
  0
INSERT
  5
390
330
679
100
AcDbEntity
  8
GTS
100
AcDbBlockReference
  2
D41
 10
2.801
 20
2.189
 30
0.0
  0
INSERT
  5
391
330
679
100
AcDbEntity
  8
GTS
100
AcDbBlockReference
  2
D41
 10
2.782
 20
2.189
 30
0.0
  0
INSERT
  5
392
330
679
100
AcDbEntity
  8
GTS
100
AcDbBlockReference
  2
D41
 10
2.762
 20
2.189
 30
0.0
  0
INSERT
  5
393
330
679
100
AcDbEntity
  8
GTS
100
AcDbBlockReference
  2
D41
 10
2.742
 20
2.189
 30
0.0
  0
INSERT
  5
394
330
679
100
AcDbEntity
  8
GTS
100
AcDbBlockReference
  2
D41
 10
2.723
 20
2.189
 30
0.0
  0
INSERT
  5
395
330
679
100
AcDbEntity
  8
GTS
100
AcDbBlockReference
  2
D41
 10
2.703
 20
2.189
 30
0.0
  0
INSERT
  5
396
330
679
100
AcDbEntity
  8
GTS
100
AcDbBlockReference
  2
D41
 10
2.683
 20
2.189
 30
0.0
  0
INSERT
  5
397
330
679
100
AcDbEntity
  8
GTS
100
AcDbBlockReference
  2
D41
 10
2.664
 20
2.189
 30
0.0
  0
INSERT
  5
398
330
679
100
AcDbEntity
  8
GTS
100
AcDbBlockReference
  2
D41
 10
2.644
 20
2.189
 30
0.0
  0
INSERT
  5
399
330
679
100
AcDbEntity
  8
GTS
100
AcDbBlockReference
  2
D41
 10
2.624
 20
2.189
 30
0.0
  0
INSERT
  5
39A
330
679
100
AcDbEntity
  8
GTS
100
AcDbBlockReference
  2
D41
 10
2.605
 20
2.189
 30
0.0
  0
INSERT
  5
39B
330
679
100
AcDbEntity
  8
GTS
100
AcDbBlockReference
  2
D41
 10
2.585
 20
2.189
 30
0.0
  0
INSERT
  5
39C
330
679
100
AcDbEntity
  8
GTS
100
AcDbBlockReference
  2
D41
 10
2.565
 20
2.189
 30
0.0
  0
INSERT
  5
39D
330
679
100
AcDbEntity
  8
GTS
100
AcDbBlockReference
  2
D41
 10
2.545
 20
2.189
 30
0.0
  0
INSERT
  5
39E
330
679
100
AcDbEntity
  8
GTS
100
AcDbBlockReference
  2
D41
 10
2.526
 20
2.189
 30
0.0
  0
INSERT
  5
39F
330
679
100
AcDbEntity
  8
GTS
100
AcDbBlockReference
  2
D41
 10
2.506
 20
2.189
 30
0.0
  0
INSERT
  5
3A0
330
679
100
AcDbEntity
  8
GTS
100
AcDbBlockReference
  2
D41
 10
2.486
 20
2.189
 30
0.0
  0
INSERT
  5
3A1
330
679
100
AcDbEntity
  8
GTS
100
AcDbBlockReference
  2
D41
 10
2.467
 20
2.189
 30
0.0
  0
INSERT
  5
3A2
330
679
100
AcDbEntity
  8
GTS
100
AcDbBlockReference
  2
D41
 10
2.447
 20
2.189
 30
0.0
  0
INSERT
  5
3A3
330
679
100
AcDbEntity
  8
GTS
100
AcDbBlockReference
  2
D41
 10
2.427
 20
2.189
 30
0.0
  0
INSERT
  5
3A4
330
679
100
AcDbEntity
  8
GTS
100
AcDbBlockReference
  2
D41
 10
2.408
 20
2.189
 30
0.0
  0
INSERT
  5
3A5
330
679
100
AcDbEntity
  8
GTS
100
AcDbBlockReference
  2
D41
 10
2.388
 20
2.189
 30
0.0
  0
INSERT
  5
3A6
330
679
100
AcDbEntity
  8
GTS
100
AcDbBlockReference
  2
D41
 10
2.388
 20
1.338
 30
0.0
  0
INSERT
  5
3A7
330
679
100
AcDbEntity
  8
GTS
100
AcDbBlockReference
  2
D41
 10
2.408
 20
1.338
 30
0.0
  0
INSERT
  5
3A8
330
679
100
AcDbEntity
  8
GTS
100
AcDbBlockReference
  2
D41
 10
2.427
 20
1.338
 30
0.0
  0
INSERT
  5
3A9
330
679
100
AcDbEntity
  8
GTS
100
AcDbBlockReference
  2
D41
 10
2.447
 20
1.338
 30
0.0
  0
INSERT
  5
3AA
330
679
100
AcDbEntity
  8
GTS
100
AcDbBlockReference
  2
D41
 10
2.467
 20
1.338
 30
0.0
  0
INSERT
  5
3AB
330
679
100
AcDbEntity
  8
GTS
100
AcDbBlockReference
  2
D41
 10
2.486
 20
1.338
 30
0.0
  0
INSERT
  5
3AC
330
679
100
AcDbEntity
  8
GTS
100
AcDbBlockReference
  2
D41
 10
2.506
 20
1.338
 30
0.0
  0
INSERT
  5
3AD
330
679
100
AcDbEntity
  8
GTS
100
AcDbBlockReference
  2
D41
 10
2.526
 20
1.338
 30
0.0
  0
INSERT
  5
3AE
330
679
100
AcDbEntity
  8
GTS
100
AcDbBlockReference
  2
D41
 10
2.545
 20
1.338
 30
0.0
  0
INSERT
  5
3AF
330
679
100
AcDbEntity
  8
GTS
100
AcDbBlockReference
  2
D41
 10
2.565
 20
1.338
 30
0.0
  0
INSERT
  5
3B0
330
679
100
AcDbEntity
  8
GTS
100
AcDbBlockReference
  2
D41
 10
2.585
 20
1.338
 30
0.0
  0
INSERT
  5
3B1
330
679
100
AcDbEntity
  8
GTS
100
AcDbBlockReference
  2
D41
 10
2.605
 20
1.338
 30
0.0
  0
INSERT
  5
3B2
330
679
100
AcDbEntity
  8
GTS
100
AcDbBlockReference
  2
D41
 10
2.624
 20
1.338
 30
0.0
  0
INSERT
  5
3B3
330
679
100
AcDbEntity
  8
GTS
100
AcDbBlockReference
  2
D41
 10
2.644
 20
1.338
 30
0.0
  0
INSERT
  5
3B4
330
679
100
AcDbEntity
  8
GTS
100
AcDbBlockReference
  2
D41
 10
2.664
 20
1.338
 30
0.0
  0
INSERT
  5
3B5
330
679
100
AcDbEntity
  8
GTS
100
AcDbBlockReference
  2
D41
 10
2.683
 20
1.338
 30
0.0
  0
INSERT
  5
3B6
330
679
100
AcDbEntity
  8
GTS
100
AcDbBlockReference
  2
D41
 10
2.703
 20
1.338
 30
0.0
  0
INSERT
  5
3B7
330
679
100
AcDbEntity
  8
GTS
100
AcDbBlockReference
  2
D41
 10
2.723
 20
1.338
 30
0.0
  0
INSERT
  5
3B8
330
679
100
AcDbEntity
  8
GTS
100
AcDbBlockReference
  2
D41
 10
2.742
 20
1.338
 30
0.0
  0
INSERT
  5
3B9
330
679
100
AcDbEntity
  8
GTS
100
AcDbBlockReference
  2
D41
 10
2.762
 20
1.338
 30
0.0
  0
INSERT
  5
3BA
330
679
100
AcDbEntity
  8
GTS
100
AcDbBlockReference
  2
D41
 10
2.782
 20
1.338
 30
0.0
  0
INSERT
  5
3BB
330
679
100
AcDbEntity
  8
GTS
100
AcDbBlockReference
  2
D41
 10
2.801
 20
1.338
 30
0.0
  0
INSERT
  5
3BC
330
679
100
AcDbEntity
  8
GTS
100
AcDbBlockReference
  2
D41
 10
2.821
 20
1.338
 30
0.0
  0
INSERT
  5
3BD
330
679
100
AcDbEntity
  8
GTS
100
AcDbBlockReference
  2
D41
 10
2.841
 20
1.338
 30
0.0
  0
INSERT
  5
3BE
330
679
100
AcDbEntity
  8
GTS
100
AcDbBlockReference
  2
D41
 10
2.86
 20
1.338
 30
0.0
  0
INSERT
  5
3BF
330
679
100
AcDbEntity
  8
GTS
100
AcDbBlockReference
  2
D41
 10
2.88
 20
1.338
 30
0.0
  0
INSERT
  5
3C0
330
679
100
AcDbEntity
  8
GTS
100
AcDbBlockReference
  2
D41
 10
2.9
 20
1.338
 30
0.0
  0
INSERT
  5
3C1
330
679
100
AcDbEntity
  8
GTS
100
AcDbBlockReference
  2
D41
 10
2.919
 20
1.338
 30
0.0
  0
INSERT
  5
3C2
330
679
100
AcDbEntity
  8
GTS
100
AcDbBlockReference
  2
D41
 10
2.939
 20
1.338
 30
0.0
  0
INSERT
  5
3C3
330
679
100
AcDbEntity
  8
GTS
100
AcDbBlockReference
  2
D41
 10
2.959
 20
1.338
 30
0.0
  0
INSERT
  5
3C4
330
679
100
AcDbEntity
  8
GTS
100
AcDbBlockReference
  2
D41
 10
2.979
 20
1.338
 30
0.0
  0
INSERT
  5
3C5
330
679
100
AcDbEntity
  8
GTS
100
AcDbBlockReference
  2
D41
 10
2.998
 20
1.338
 30
0.0
  0
INSERT
  5
3C6
330
679
100
AcDbEntity
  8
GTS
100
AcDbBlockReference
  2
D41
 10
3.018
 20
1.338
 30
0.0
  0
INSERT
  5
3C7
330
679
100
AcDbEntity
  8
GTS
100
AcDbBlockReference
  2
D41
 10
3.038
 20
1.338
 30
0.0
  0
INSERT
  5
3C8
330
679
100
AcDbEntity
  8
GTS
100
AcDbBlockReference
  2
D41
 10
3.057
 20
1.338
 30
0.0
  0
INSERT
  5
3C9
330
679
100
AcDbEntity
  8
GTS
100
AcDbBlockReference
  2
D41
 10
3.077
 20
1.338
 30
0.0
  0
INSERT
  5
3CA
330
679
100
AcDbEntity
  8
GTS
100
AcDbBlockReference
  2
D42
 10
2.307
 20
2.108
 30
0.0
  0
INSERT
  5
3CB
330
679
100
AcDbEntity
  8
GTS
100
AcDbBlockReference
  2
D42
 10
2.307
 20
2.088
 30
0.0
  0
INSERT
  5
3CC
330
679
100
AcDbEntity
  8
GTS
100
AcDbBlockReference
  2
D42
 10
2.307
 20
2.069
 30
0.0
  0
INSERT
  5
3CD
330
679
100
AcDbEntity
  8
GTS
100
AcDbBlockReference
  2
D42
 10
2.307
 20
2.049
 30
0.0
  0
INSERT
  5
3CE
330
679
100
AcDbEntity
  8
GTS
100
AcDbBlockReference
  2
D42
 10
2.307
 20
2.029
 30
0.0
  0
INSERT
  5
3CF
330
679
100
AcDbEntity
  8
GTS
100
AcDbBlockReference
  2
D42
 10
2.307
 20
2.01
 30
0.0
  0
INSERT
  5
3D0
330
679
100
AcDbEntity
  8
GTS
100
AcDbBlockReference
  2
D42
 10
2.307
 20
1.99
 30
0.0
  0
INSERT
  5
3D1
330
679
100
AcDbEntity
  8
GTS
100
AcDbBlockReference
  2
D42
 10
2.307
 20
1.97
 30
0.0
  0
INSERT
  5
3D2
330
679
100
AcDbEntity
  8
GTS
100
AcDbBlockReference
  2
D42
 10
2.307
 20
1.951
 30
0.0
  0
INSERT
  5
3D3
330
679
100
AcDbEntity
  8
GTS
100
AcDbBlockReference
  2
D42
 10
2.307
 20
1.931
 30
0.0
  0
INSERT
  5
3D4
330
679
100
AcDbEntity
  8
GTS
100
AcDbBlockReference
  2
D42
 10
2.307
 20
1.911
 30
0.0
  0
INSERT
  5
3D5
330
679
100
AcDbEntity
  8
GTS
100
AcDbBlockReference
  2
D42
 10
2.307
 20
1.891
 30
0.0
  0
INSERT
  5
3D6
330
679
100
AcDbEntity
  8
GTS
100
AcDbBlockReference
  2
D42
 10
2.307
 20
1.872
 30
0.0
  0
INSERT
  5
3D7
330
679
100
AcDbEntity
  8
GTS
100
AcDbBlockReference
  2
D42
 10
2.307
 20
1.852
 30
0.0
  0
INSERT
  5
3D8
330
679
100
AcDbEntity
  8
GTS
100
AcDbBlockReference
  2
D42
 10
2.307
 20
1.832
 30
0.0
  0
INSERT
  5
3D9
330
679
100
AcDbEntity
  8
GTS
100
AcDbBlockReference
  2
D42
 10
2.307
 20
1.813
 30
0.0
  0
INSERT
  5
3DA
330
679
100
AcDbEntity
  8
GTS
100
AcDbBlockReference
  2
D42
 10
2.307
 20
1.793
 30
0.0
  0
INSERT
  5
3DB
330
679
100
AcDbEntity
  8
GTS
100
AcDbBlockReference
  2
D42
 10
2.307
 20
1.773
 30
0.0
  0
INSERT
  5
3DC
330
679
100
AcDbEntity
  8
GTS
100
AcDbBlockReference
  2
D42
 10
2.307
 20
1.754
 30
0.0
  0
INSERT
  5
3DD
330
679
100
AcDbEntity
  8
GTS
100
AcDbBlockReference
  2
D42
 10
2.307
 20
1.734
 30
0.0
  0
INSERT
  5
3DE
330
679
100
AcDbEntity
  8
GTS
100
AcDbBlockReference
  2
D42
 10
2.307
 20
1.714
 30
0.0
  0
INSERT
  5
3DF
330
679
100
AcDbEntity
  8
GTS
100
AcDbBlockReference
  2
D42
 10
2.307
 20
1.695
 30
0.0
  0
INSERT
  5
3E0
330
679
100
AcDbEntity
  8
GTS
100
AcDbBlockReference
  2
D42
 10
2.307
 20
1.675
 30
0.0
  0
INSERT
  5
3E1
330
679
100
AcDbEntity
  8
GTS
100
AcDbBlockReference
  2
D42
 10
2.307
 20
1.655
 30
0.0
  0
INSERT
  5
3E2
330
679
100
AcDbEntity
  8
GTS
100
AcDbBlockReference
  2
D42
 10
2.307
 20
1.636
 30
0.0
  0
INSERT
  5
3E3
330
679
100
AcDbEntity
  8
GTS
100
AcDbBlockReference
  2
D42
 10
2.307
 20
1.616
 30
0.0
  0
INSERT
  5
3E4
330
679
100
AcDbEntity
  8
GTS
100
AcDbBlockReference
  2
D42
 10
2.307
 20
1.596
 30
0.0
  0
INSERT
  5
3E5
330
679
100
AcDbEntity
  8
GTS
100
AcDbBlockReference
  2
D42
 10
2.307
 20
1.576
 30
0.0
  0
INSERT
  5
3E6
330
679
100
AcDbEntity
  8
GTS
100
AcDbBlockReference
  2
D42
 10
2.307
 20
1.557
 30
0.0
  0
INSERT
  5
3E7
330
679
100
AcDbEntity
  8
GTS
100
AcDbBlockReference
  2
D42
 10
2.307
 20
1.537
 30
0.0
  0
INSERT
  5
3E8
330
679
100
AcDbEntity
  8
GTS
100
AcDbBlockReference
  2
D42
 10
2.307
 20
1.517
 30
0.0
  0
INSERT
  5
3E9
330
679
100
AcDbEntity
  8
GTS
100
AcDbBlockReference
  2
D42
 10
2.307
 20
1.498
 30
0.0
  0
INSERT
  5
3EA
330
679
100
AcDbEntity
  8
GTS
100
AcDbBlockReference
  2
D42
 10
2.307
 20
1.478
 30
0.0
  0
INSERT
  5
3EB
330
679
100
AcDbEntity
  8
GTS
100
AcDbBlockReference
  2
D42
 10
2.307
 20
1.458
 30
0.0
  0
INSERT
  5
3EC
330
679
100
AcDbEntity
  8
GTS
100
AcDbBlockReference
  2
D42
 10
2.307
 20
1.439
 30
0.0
  0
INSERT
  5
3ED
330
679
100
AcDbEntity
  8
GTS
100
AcDbBlockReference
  2
D42
 10
2.307
 20
1.419
 30
0.0
  0
INSERT
  5
3EE
330
679
100
AcDbEntity
  8
GTS
100
AcDbBlockReference
  2
D42
 10
3.158
 20
1.419
 30
0.0
  0
INSERT
  5
3EF
330
679
100
AcDbEntity
  8
GTS
100
AcDbBlockReference
  2
D42
 10
3.158
 20
1.439
 30
0.0
  0
INSERT
  5
3F0
330
679
100
AcDbEntity
  8
GTS
100
AcDbBlockReference
  2
D42
 10
3.158
 20
1.458
 30
0.0
  0
INSERT
  5
3F1
330
679
100
AcDbEntity
  8
GTS
100
AcDbBlockReference
  2
D42
 10
3.158
 20
1.478
 30
0.0
  0
INSERT
  5
3F2
330
679
100
AcDbEntity
  8
GTS
100
AcDbBlockReference
  2
D42
 10
3.158
 20
1.498
 30
0.0
  0
INSERT
  5
3F3
330
679
100
AcDbEntity
  8
GTS
100
AcDbBlockReference
  2
D42
 10
3.158
 20
1.517
 30
0.0
  0
INSERT
  5
3F4
330
679
100
AcDbEntity
  8
GTS
100
AcDbBlockReference
  2
D42
 10
3.158
 20
1.537
 30
0.0
  0
INSERT
  5
3F5
330
679
100
AcDbEntity
  8
GTS
100
AcDbBlockReference
  2
D42
 10
3.158
 20
1.557
 30
0.0
  0
INSERT
  5
3F6
330
679
100
AcDbEntity
  8
GTS
100
AcDbBlockReference
  2
D42
 10
3.158
 20
1.576
 30
0.0
  0
INSERT
  5
3F7
330
679
100
AcDbEntity
  8
GTS
100
AcDbBlockReference
  2
D42
 10
3.158
 20
1.596
 30
0.0
  0
INSERT
  5
3F8
330
679
100
AcDbEntity
  8
GTS
100
AcDbBlockReference
  2
D42
 10
3.158
 20
1.616
 30
0.0
  0
INSERT
  5
3F9
330
679
100
AcDbEntity
  8
GTS
100
AcDbBlockReference
  2
D42
 10
3.158
 20
1.636
 30
0.0
  0
INSERT
  5
3FA
330
679
100
AcDbEntity
  8
GTS
100
AcDbBlockReference
  2
D42
 10
3.158
 20
1.655
 30
0.0
  0
INSERT
  5
3FB
330
679
100
AcDbEntity
  8
GTS
100
AcDbBlockReference
  2
D42
 10
3.158
 20
1.675
 30
0.0
  0
INSERT
  5
3FC
330
679
100
AcDbEntity
  8
GTS
100
AcDbBlockReference
  2
D42
 10
3.158
 20
1.695
 30
0.0
  0
INSERT
  5
3FD
330
679
100
AcDbEntity
  8
GTS
100
AcDbBlockReference
  2
D42
 10
3.158
 20
1.714
 30
0.0
  0
INSERT
  5
3FE
330
679
100
AcDbEntity
  8
GTS
100
AcDbBlockReference
  2
D42
 10
3.158
 20
1.734
 30
0.0
  0
INSERT
  5
3FF
330
679
100
AcDbEntity
  8
GTS
100
AcDbBlockReference
  2
D42
 10
3.158
 20
1.754
 30
0.0
  0
INSERT
  5
400
330
679
100
AcDbEntity
  8
GTS
100
AcDbBlockReference
  2
D42
 10
3.158
 20
1.773
 30
0.0
  0
INSERT
  5
401
330
679
100
AcDbEntity
  8
GTS
100
AcDbBlockReference
  2
D42
 10
3.158
 20
1.793
 30
0.0
  0
INSERT
  5
402
330
679
100
AcDbEntity
  8
GTS
100
AcDbBlockReference
  2
D42
 10
3.158
 20
1.813
 30
0.0
  0
INSERT
  5
403
330
679
100
AcDbEntity
  8
GTS
100
AcDbBlockReference
  2
D42
 10
3.158
 20
1.832
 30
0.0
  0
INSERT
  5
404
330
679
100
AcDbEntity
  8
GTS
100
AcDbBlockReference
  2
D42
 10
3.158
 20
1.852
 30
0.0
  0
INSERT
  5
405
330
679
100
AcDbEntity
  8
GTS
100
AcDbBlockReference
  2
D42
 10
3.158
 20
1.872
 30
0.0
  0
INSERT
  5
406
330
679
100
AcDbEntity
  8
GTS
100
AcDbBlockReference
  2
D42
 10
3.158
 20
1.891
 30
0.0
  0
INSERT
  5
407
330
679
100
AcDbEntity
  8
GTS
100
AcDbBlockReference
  2
D42
 10
3.158
 20
1.911
 30
0.0
  0
INSERT
  5
408
330
679
100
AcDbEntity
  8
GTS
100
AcDbBlockReference
  2
D42
 10
3.158
 20
1.931
 30
0.0
  0
INSERT
  5
409
330
679
100
AcDbEntity
  8
GTS
100
AcDbBlockReference
  2
D42
 10
3.158
 20
1.951
 30
0.0
  0
INSERT
  5
40A
330
679
100
AcDbEntity
  8
GTS
100
AcDbBlockReference
  2
D42
 10
3.158
 20
1.97
 30
0.0
  0
INSERT
  5
40B
330
679
100
AcDbEntity
  8
GTS
100
AcDbBlockReference
  2
D42
 10
3.158
 20
1.99
 30
0.0
  0
INSERT
  5
40C
330
679
100
AcDbEntity
  8
GTS
100
AcDbBlockReference
  2
D42
 10
3.158
 20
2.01
 30
0.0
  0
INSERT
  5
40D
330
679
100
AcDbEntity
  8
GTS
100
AcDbBlockReference
  2
D42
 10
3.158
 20
2.029
 30
0.0
  0
INSERT
  5
40E
330
679
100
AcDbEntity
  8
GTS
100
AcDbBlockReference
  2
D42
 10
3.158
 20
2.049
 30
0.0
  0
INSERT
  5
40F
330
679
100
AcDbEntity
  8
GTS
100
AcDbBlockReference
  2
D42
 10
3.158
 20
2.069
 30
0.0
  0
INSERT
  5
410
330
679
100
AcDbEntity
  8
GTS
100
AcDbBlockReference
  2
D42
 10
3.158
 20
2.088
 30
0.0
  0
INSERT
  5
411
330
679
100
AcDbEntity
  8
GTS
100
AcDbBlockReference
  2
D42
 10
3.158
 20
2.108
 30
0.0
  0
INSERT
  5
412
330
679
100
AcDbEntity
  8
GTS
100
AcDbBlockReference
  2
D43
 10
2.246
 20
2.384
 30
0.0
  0
INSERT
  5
413
330
679
100
AcDbEntity
  8
GTS
100
AcDbBlockReference
  2
D43
 10
2.246
 20
2.293
 30
0.0
  0
INSERT
  5
414
330
679
100
AcDbEntity
  8
GTS
100
AcDbBlockReference
  2
D43
 10
2.319
 20
2.293
 30
0.0
  0
INSERT
  5
415
330
679
100
AcDbEntity
  8
GTS
100
AcDbBlockReference
  2
D43
 10
2.319
 20
2.384
 30
0.0
  0
INSERT
  5
416
330
679
100
AcDbEntity
  8
GTS
100
AcDbBlockReference
  2
D44
 10
2.039
 20
1.829
 30
0.0
  0
INSERT
  5
417
330
679
100
AcDbEntity
  8
GTS
100
AcDbBlockReference
  2
D44
 10
2.039
 20
1.952
 30
0.0
  0
INSERT
  5
418
330
679
100
AcDbEntity
  8
GTS
100
AcDbBlockReference
  2
D45
 10
1.138
 20
1.33
 30
0.0
  0
INSERT
  5
419
330
679
100
AcDbEntity
  8
GTS
100
AcDbBlockReference
  2
D45
 10
1.229
 20
1.33
 30
0.0
  0
INSERT
  5
41A
330
679
100
AcDbEntity
  8
GTS
100
AcDbBlockReference
  2
D45
 10
1.229
 20
1.403
 30
0.0
  0
INSERT
  5
41B
330
679
100
AcDbEntity
  8
GTS
100
AcDbBlockReference
  2
D45
 10
1.138
 20
1.403
 30
0.0
  0
INSERT
  5
41C
330
679
100
AcDbEntity
  8
GTS
100
AcDbBlockReference
  2
D46
 10
1.119
 20
2.21
 30
0.0
  0
INSERT
  5
41D
330
679
100
AcDbEntity
  8
GTS
100
AcDbBlockReference
  2
D46
 10
1.119
 20
2.131
 30
0.0
  0
INSERT
  5
41E
330
679
100
AcDbEntity
  8
GTS
100
AcDbBlockReference
  2
D46
 10
1.119
 20
2.275
 30
0.0
  0
INSERT
  5
41F
330
679
100
AcDbEntity
  8
GTS
100
AcDbBlockReference
  2
D46
 10
1.119
 20
2.354
 30
0.0
  0
INSERT
  5
420
330
679
100
AcDbEntity
  8
GTS
100
AcDbBlockReference
  2
D46
 10
1.067
 20
1.75
 30
0.0
  0
INSERT
  5
421
330
679
100
AcDbEntity
  8
GTS
100
AcDbBlockReference
  2
D46
 10
1.067
 20
1.671
 30
0.0
  0
INSERT
  5
422
330
679
100
AcDbEntity
  8
GTS
100
AcDbBlockReference
  2
D46
 10
1.039
 20
1.515
 30
0.0
  0
INSERT
  5
423
330
679
100
AcDbEntity
  8
GTS
100
AcDbBlockReference
  2
D46
 10
1.039
 20
1.594
 30
0.0
  0
INSERT
  5
424
330
679
100
AcDbEntity
  8
GTS
100
AcDbBlockReference
  2
D47
 10
0.952
 20
2.455
 30
0.0
  0
INSERT
  5
425
330
679
100
AcDbEntity
  8
GTS
100
AcDbBlockReference
  2
D47
 10
1.031
 20
2.455
 30
0.0
  0
INSERT
  5
426
330
679
100
AcDbEntity
  8
GTS
100
AcDbBlockReference
  2
D48
 10
4.607
 20
0.839
 30
0.0
  0
INSERT
  5
427
330
679
100
AcDbEntity
  8
GTS
100
AcDbBlockReference
  2
D48
 10
1.407
 20
2.739
 30
0.0
  0
INSERT
  5
428
330
679
100
AcDbEntity
  8
GTS
100
AcDbBlockReference
  2
D48
 10
4.357
 20
2.739
 30
0.0
  0
INSERT
  5
429
330
679
100
AcDbEntity
  8
GTS
100
AcDbBlockReference
  2
D48
 10
1.357
 20
0.839
 30
0.0
  0
INSERT
  5
42A
330
679
100
AcDbEntity
  8
GTS
100
AcDbBlockReference
  2
D48
 10
3.407
 20
2.139
 30
0.0
  0
INSERT
  5
42B
330
679
100
AcDbEntity
  8
GTS
100
AcDbBlockReference
  2
D48
 10
3.407
 20
1.039
 30
0.0
  0
INSERT
  5
42C
330
679
100
AcDbEntity
  8
GTS
100
AcDbBlockReference
  2
D49
 10
0.971
 20
2.29
 30
0.0
  0
INSERT
  5
42D
330
679
100
AcDbEntity
  8
GTS
100
AcDbBlockReference
  2
D49
 10
0.971
 20
2.264
 30
0.0
  0
INSERT
  5
42E
330
679
100
AcDbEntity
  8
GTS
100
AcDbBlockReference
  2
D49
 10
0.971
 20
2.239
 30
0.0
  0
INSERT
  5
42F
330
679
100
AcDbEntity
  8
GTS
100
AcDbBlockReference
  2
D49
 10
0.971
 20
2.213
 30
0.0
  0
INSERT
  5
430
330
679
100
AcDbEntity
  8
GTS
100
AcDbBlockReference
  2
D49
 10
0.971
 20
2.187
 30
0.0
  0
INSERT
  5
431
330
679
100
AcDbEntity
  8
GTS
100
AcDbBlockReference
  2
D50
 10
0.864
 20
2.239
 30
0.0
  0
INSERT
  5
432
330
679
100
AcDbEntity
  8
GTS
100
AcDbBlockReference
  2
D51
 10
0.983
 20
2.333
 30
0.0
  0
INSERT
  5
433
330
679
100
AcDbEntity
  8
GTS
100
AcDbBlockReference
  2
D51
 10
0.983
 20
2.144
 30
0.0
  0
INSERT
  5
434
330
679
100
AcDbEntity
  8
GTS
100
AcDbBlockReference
  2
D52
 10
0.864
 20
2.396
 30
0.0
  0
INSERT
  5
435
330
679
100
AcDbEntity
  8
GTS
100
AcDbBlockReference
  2
D52
 10
0.864
 20
2.081
 30
0.0
  0
INSERT
  5
436
330
679
100
AcDbEntity
  8
GTS
100
AcDbBlockReference
  2
D53
 10
0.864
 20
2.332
 30
0.0
  0
INSERT
  5
437
330
679
100
AcDbEntity
  8
GTS
100
AcDbBlockReference
  2
D53
 10
0.864
 20
2.145
 30
0.0
  0
INSERT
  5
438
330
679
100
AcDbEntity
  8
GTS
100
AcDbBlockReference
  2
D53
 10
0.809
 20
2.332
 30
0.0
  0
INSERT
  5
439
330
679
100
AcDbEntity
  8
GTS
100
AcDbBlockReference
  2
D53
 10
0.809
 20
2.145
 30
0.0
  0
INSERT
  5
43A
330
679
100
AcDbEntity
  8
GTS
100
AcDbBlockReference
  2
D53
 10
0.849
 20
2.332
 30
0.0
  0
INSERT
  5
43B
330
679
100
AcDbEntity
  8
GTS
100
AcDbBlockReference
  2
D53
 10
0.849
 20
2.145
 30
0.0
  0
INSERT
  5
43C
330
679
100
AcDbEntity
  8
GTS
100
AcDbBlockReference
  2
D53
 10
0.833
 20
2.145
 30
0.0
  0
INSERT
  5
43D
330
679
100
AcDbEntity
  8
GTS
100
AcDbBlockReference
  2
D53
 10
0.833
 20
2.332
 30
0.0
  0
INSERT
  5
43E
330
679
100
AcDbEntity
  8
GTS
100
AcDbBlockReference
  2
D54
 10
3.696
 20
1.52
 30
0.0
  0
INSERT
  5
43F
330
679
100
AcDbEntity
  8
GTS
100
AcDbBlockReference
  2
D54
 10
3.791
 20
1.357
 30
0.0
  0
INSERT
  5
440
330
679
100
AcDbEntity
  8
GTS
100
AcDbBlockReference
  2
D55
 10
1.746
 20
0.864
 30
0.0
  0
INSERT
  5
441
330
679
100
AcDbEntity
  8
GTS
100
AcDbBlockReference
  2
D55
 10
1.746
 20
1.053
 30
0.0
  0
INSERT
  5
442
330
679
100
AcDbEntity
  8
GTS
100
AcDbBlockReference
  2
D56
 10
0.968
 20
1.666
 30
0.0
  0
INSERT
  5
443
330
679
100
AcDbEntity
  8
GTS
100
AcDbBlockReference
  2
D56
 10
0.968
 20
1.64
 30
0.0
  0
INSERT
  5
444
330
679
100
AcDbEntity
  8
GTS
100
AcDbBlockReference
  2
D56
 10
0.968
 20
1.614
 30
0.0
  0
INSERT
  5
445
330
679
100
AcDbEntity
  8
GTS
100
AcDbBlockReference
  2
D56
 10
0.968
 20
1.588
 30
0.0
  0
INSERT
  5
446
330
679
100
AcDbEntity
  8
GTS
100
AcDbBlockReference
  2
D56
 10
0.968
 20
1.562
 30
0.0
  0
INSERT
  5
447
330
679
100
AcDbEntity
  8
GTS
100
AcDbBlockReference
  2
D57
 10
0.862
 20
1.744
 30
0.0
  0
INSERT
  5
448
330
679
100
AcDbEntity
  8
GTS
100
AcDbBlockReference
  2
D57
 10
0.862
 20
1.484
 30
0.0
  0
INSERT
  5
449
330
679
100
AcDbEntity
  8
GTS
100
AcDbBlockReference
  2
D58
 10
0.968
 20
1.712
 30
0.0
  0
INSERT
  5
44A
330
679
100
AcDbEntity
  8
GTS
100
AcDbBlockReference
  2
D58
 10
0.968
 20
1.516
 30
0.0
  0
INSERT
  5
44B
330
679
100
AcDbEntity
  8
GTS
100
AcDbBlockReference
  2
D59
 10
0.862
 20
1.654
 30
0.0
  0
INSERT
  5
44C
330
679
100
AcDbEntity
  8
GTS
100
AcDbBlockReference
  2
D59
 10
0.862
 20
1.574
 30
0.0
  0
INSERT
  5
44D
330
679
100
AcDbEntity
  8
GTS
100
AcDbBlockReference
  2
D60
 10
0.912
 20
0.834
 30
0.0
  0
INSERT
  5
44E
330
679
100
AcDbEntity
  8
GTS
100
AcDbBlockReference
  2
D60
 10
1.052
 20
2.659
 30
0.0
  0
INSERT
  5
44F
330
679
100
AcDbEntity
  8
GTS
100
AcDbBlockReference
  2
D60
 10
4.476
 20
0.916
 30
0.0
  0
INSERT
  5
450
330
679
100
AcDbEntity
  8
GTS
100
AcDbBlockReference
  2
D60
 10
4.347
 20
2.025
 30
0.0
  0
INSERT
  5
451
330
679
100
AcDbEntity
  8
GTS
100
AcDbBlockReference
  2
D61
 10
3.707
 20
0.839
 30
0.0
  0
INSERT
  5
452
330
679
100
AcDbEntity
  8
GTS
100
AcDbBlockReference
  2
D61
 10
3.807
 20
0.839
 30
0.0
  0
INSERT
  5
453
330
679
100
AcDbEntity
  8
GTS
100
AcDbBlockReference
  2
D61
 10
3.907
 20
0.839
 30
0.0
  0
INSERT
  5
454
330
679
100
AcDbEntity
  8
GTS
100
AcDbBlockReference
  2
D61
 10
4.007
 20
0.839
 30
0.0
  0
INSERT
  5
455
330
679
100
AcDbEntity
  8
GTS
100
AcDbBlockReference
  2
D61
 10
4.107
 20
0.839
 30
0.0
  0
INSERT
  5
456
330
679
100
AcDbEntity
  8
GTS
100
AcDbBlockReference
  2
D61
 10
4.207
 20
0.839
 30
0.0
  0
INSERT
  5
457
330
679
100
AcDbEntity
  8
GTS
100
AcDbBlockReference
  2
D61
 10
4.307
 20
0.839
 30
0.0
  0
INSERT
  5
458
330
679
100
AcDbEntity
  8
GTS
100
AcDbBlockReference
  2
D61
 10
4.407
 20
0.839
 30
0.0
  0
INSERT
  5
459
330
679
100
AcDbEntity
  8
GTS
100
AcDbBlockReference
  2
D61
 10
2.807
 20
0.839
 30
0.0
  0
INSERT
  5
45A
330
679
100
AcDbEntity
  8
GTS
100
AcDbBlockReference
  2
D61
 10
2.907
 20
0.839
 30
0.0
  0
INSERT
  5
45B
330
679
100
AcDbEntity
  8
GTS
100
AcDbBlockReference
  2
D61
 10
3.007
 20
0.839
 30
0.0
  0
INSERT
  5
45C
330
679
100
AcDbEntity
  8
GTS
100
AcDbBlockReference
  2
D61
 10
3.107
 20
0.839
 30
0.0
  0
INSERT
  5
45D
330
679
100
AcDbEntity
  8
GTS
100
AcDbBlockReference
  2
D61
 10
3.207
 20
0.839
 30
0.0
  0
INSERT
  5
45E
330
679
100
AcDbEntity
  8
GTS
100
AcDbBlockReference
  2
D61
 10
3.307
 20
0.839
 30
0.0
  0
INSERT
  5
45F
330
679
100
AcDbEntity
  8
GTS
100
AcDbBlockReference
  2
D61
 10
3.407
 20
0.839
 30
0.0
  0
INSERT
  5
460
330
679
100
AcDbEntity
  8
GTS
100
AcDbBlockReference
  2
D61
 10
3.507
 20
0.839
 30
0.0
  0
INSERT
  5
461
330
679
100
AcDbEntity
  8
GTS
100
AcDbBlockReference
  2
D61
 10
3.507
 20
2.739
 30
0.0
  0
INSERT
  5
462
330
679
100
AcDbEntity
  8
GTS
100
AcDbBlockReference
  2
D61
 10
3.607
 20
2.739
 30
0.0
  0
INSERT
  5
463
330
679
100
AcDbEntity
  8
GTS
100
AcDbBlockReference
  2
D61
 10
3.707
 20
2.739
 30
0.0
  0
INSERT
  5
464
330
679
100
AcDbEntity
  8
GTS
100
AcDbBlockReference
  2
D61
 10
3.807
 20
2.739
 30
0.0
  0
INSERT
  5
465
330
679
100
AcDbEntity
  8
GTS
100
AcDbBlockReference
  2
D61
 10
3.907
 20
2.739
 30
0.0
  0
INSERT
  5
466
330
679
100
AcDbEntity
  8
GTS
100
AcDbBlockReference
  2
D61
 10
4.007
 20
2.739
 30
0.0
  0
INSERT
  5
467
330
679
100
AcDbEntity
  8
GTS
100
AcDbBlockReference
  2
D61
 10
4.107
 20
2.739
 30
0.0
  0
INSERT
  5
468
330
679
100
AcDbEntity
  8
GTS
100
AcDbBlockReference
  2
D61
 10
4.207
 20
2.739
 30
0.0
  0
INSERT
  5
469
330
679
100
AcDbEntity
  8
GTS
100
AcDbBlockReference
  2
D61
 10
1.907
 20
0.839
 30
0.0
  0
INSERT
  5
46A
330
679
100
AcDbEntity
  8
GTS
100
AcDbBlockReference
  2
D61
 10
2.007
 20
0.839
 30
0.0
  0
INSERT
  5
46B
330
679
100
AcDbEntity
  8
GTS
100
AcDbBlockReference
  2
D61
 10
2.107
 20
0.839
 30
0.0
  0
INSERT
  5
46C
330
679
100
AcDbEntity
  8
GTS
100
AcDbBlockReference
  2
D61
 10
2.207
 20
0.839
 30
0.0
  0
INSERT
  5
46D
330
679
100
AcDbEntity
  8
GTS
100
AcDbBlockReference
  2
D61
 10
2.307
 20
0.839
 30
0.0
  0
INSERT
  5
46E
330
679
100
AcDbEntity
  8
GTS
100
AcDbBlockReference
  2
D61
 10
2.407
 20
0.839
 30
0.0
  0
INSERT
  5
46F
330
679
100
AcDbEntity
  8
GTS
100
AcDbBlockReference
  2
D61
 10
2.507
 20
0.839
 30
0.0
  0
INSERT
  5
470
330
679
100
AcDbEntity
  8
GTS
100
AcDbBlockReference
  2
D61
 10
2.607
 20
0.839
 30
0.0
  0
INSERT
  5
471
330
679
100
AcDbEntity
  8
GTS
100
AcDbBlockReference
  2
D61
 10
3.307
 20
2.739
 30
0.0
  0
INSERT
  5
472
330
679
100
AcDbEntity
  8
GTS
100
AcDbBlockReference
  2
D61
 10
3.207
 20
2.739
 30
0.0
  0
INSERT
  5
473
330
679
100
AcDbEntity
  8
GTS
100
AcDbBlockReference
  2
D61
 10
3.107
 20
2.739
 30
0.0
  0
INSERT
  5
474
330
679
100
AcDbEntity
  8
GTS
100
AcDbBlockReference
  2
D61
 10
3.007
 20
2.739
 30
0.0
  0
INSERT
  5
475
330
679
100
AcDbEntity
  8
GTS
100
AcDbBlockReference
  2
D61
 10
2.907
 20
2.739
 30
0.0
  0
INSERT
  5
476
330
679
100
AcDbEntity
  8
GTS
100
AcDbBlockReference
  2
D61
 10
2.807
 20
2.739
 30
0.0
  0
INSERT
  5
477
330
679
100
AcDbEntity
  8
GTS
100
AcDbBlockReference
  2
D61
 10
2.707
 20
2.739
 30
0.0
  0
INSERT
  5
478
330
679
100
AcDbEntity
  8
GTS
100
AcDbBlockReference
  2
D61
 10
2.607
 20
2.739
 30
0.0
  0
INSERT
  5
479
330
679
100
AcDbEntity
  8
GTS
100
AcDbBlockReference
  2
D61
 10
2.447
 20
2.739
 30
0.0
  0
INSERT
  5
47A
330
679
100
AcDbEntity
  8
GTS
100
AcDbBlockReference
  2
D61
 10
2.347
 20
2.739
 30
0.0
  0
INSERT
  5
47B
330
679
100
AcDbEntity
  8
GTS
100
AcDbBlockReference
  2
D61
 10
2.247
 20
2.739
 30
0.0
  0
INSERT
  5
47C
330
679
100
AcDbEntity
  8
GTS
100
AcDbBlockReference
  2
D61
 10
2.147
 20
2.739
 30
0.0
  0
INSERT
  5
47D
330
679
100
AcDbEntity
  8
GTS
100
AcDbBlockReference
  2
D61
 10
2.047
 20
2.739
 30
0.0
  0
INSERT
  5
47E
330
679
100
AcDbEntity
  8
GTS
100
AcDbBlockReference
  2
D61
 10
1.947
 20
2.739
 30
0.0
  0
INSERT
  5
47F
330
679
100
AcDbEntity
  8
GTS
100
AcDbBlockReference
  2
D61
 10
1.847
 20
2.739
 30
0.0
  0
INSERT
  5
480
330
679
100
AcDbEntity
  8
GTS
100
AcDbBlockReference
  2
D61
 10
1.747
 20
2.739
 30
0.0
  0
INSERT
  5
481
330
679
100
AcDbEntity
  8
GTS
100
AcDbBlockReference
  2
D61
 10
1.647
 20
2.739
 30
0.0
  0
INSERT
  5
482
330
679
100
AcDbEntity
  8
GTS
100
AcDbBlockReference
  2
D61
 10
1.547
 20
2.739
 30
0.0
  0
INSERT
  5
483
330
679
100
AcDbEntity
  8
GTS
100
AcDbBlockReference
  2
D62
 10
2.117
 20
2.451
 30
0.0
  0
INSERT
  5
484
330
679
100
AcDbEntity
  8
GTS
100
AcDbBlockReference
  2
D62
 10
2.017
 20
2.451
 30
0.0
  0
INSERT
  5
485
330
679
100
AcDbEntity
  8
GTS
100
AcDbBlockReference
  2
D62
 10
1.917
 20
2.451
 30
0.0
  0
INSERT
  5
486
330
679
100
AcDbEntity
  8
GTS
100
AcDbBlockReference
  2
D62
 10
1.817
 20
2.451
 30
0.0
  0
INSERT
  5
487
330
679
100
AcDbEntity
  8
GTS
100
AcDbBlockReference
  2
D63
 10
1.829
 20
1.219
 30
0.0
  0
INSERT
  5
488
330
679
100
AcDbEntity
  8
GTS
100
AcDbBlockReference
  2
D63
 10
1.729
 20
1.219
 30
0.0
  0
INSERT
  5
489
330
679
100
AcDbEntity
  8
GTS
100
AcDbBlockReference
  2
D63
 10
1.829
 20
1.319
 30
0.0
  0
INSERT
  5
48A
330
679
100
AcDbEntity
  8
GTS
100
AcDbBlockReference
  2
D63
 10
1.729
 20
1.319
 30
0.0
  0
INSERT
  5
48B
330
679
100
AcDbEntity
  8
GTS
100
AcDbBlockReference
  2
D63
 10
1.829
 20
1.419
 30
0.0
  0
INSERT
  5
48C
330
679
100
AcDbEntity
  8
GTS
100
AcDbBlockReference
  2
D63
 10
1.729
 20
1.419
 30
0.0
  0
INSERT
  5
48D
330
679
100
AcDbEntity
  8
GTS
100
AcDbBlockReference
  2
D63
 10
3.312
 20
1.939
 30
0.0
  0
INSERT
  5
48E
330
679
100
AcDbEntity
  8
GTS
100
AcDbBlockReference
  2
D63
 10
3.412
 20
1.939
 30
0.0
  0
INSERT
  5
48F
330
679
100
AcDbEntity
  8
GTS
100
AcDbBlockReference
  2
D63
 10
3.312
 20
1.839
 30
0.0
  0
INSERT
  5
490
330
679
100
AcDbEntity
  8
GTS
100
AcDbBlockReference
  2
D63
 10
3.412
 20
1.839
 30
0.0
  0
INSERT
  5
491
330
679
100
AcDbEntity
  8
GTS
100
AcDbBlockReference
  2
D63
 10
3.312
 20
1.739
 30
0.0
  0
INSERT
  5
492
330
679
100
AcDbEntity
  8
GTS
100
AcDbBlockReference
  2
D63
 10
3.412
 20
1.739
 30
0.0
  0
INSERT
  5
493
330
679
100
AcDbEntity
  8
GTS
100
AcDbBlockReference
  2
D64
 10
1.621
 20
1.281
 30
0.0
  0
INSERT
  5
494
330
679
100
AcDbEntity
  8
GTS
100
AcDbBlockReference
  2
D64
 10
1.621
 20
1.181
 30
0.0
  0
INSERT
  5
495
330
679
100
AcDbEntity
  8
GTS
100
AcDbBlockReference
  2
D64
 10
1.521
 20
1.281
 30
0.0
  0
INSERT
  5
496
330
679
100
AcDbEntity
  8
GTS
100
AcDbBlockReference
  2
D64
 10
1.521
 20
1.181
 30
0.0
  0
INSERT
  5
497
330
679
100
AcDbEntity
  8
GTS
100
AcDbBlockReference
  2
D65
 10
4.507
 20
2.739
 30
0.0
  0
INSERT
  5
498
330
679
100
AcDbEntity
  8
GTS
100
AcDbBlockReference
  2
D65
 10
4.607
 20
2.739
 30
0.0
  0
INSERT
  5
499
330
679
100
AcDbEntity
  8
GTS
100
AcDbBlockReference
  2
D65
 10
4.507
 20
2.639
 30
0.0
  0
INSERT
  5
49A
330
679
100
AcDbEntity
  8
GTS
100
AcDbBlockReference
  2
D65
 10
4.607
 20
2.639
 30
0.0
  0
INSERT
  5
49B
330
679
100
AcDbEntity
  8
GTS
100
AcDbBlockReference
  2
D65
 10
4.507
 20
2.539
 30
0.0
  0
INSERT
  5
49C
330
679
100
AcDbEntity
  8
GTS
100
AcDbBlockReference
  2
D65
 10
4.607
 20
2.539
 30
0.0
  0
INSERT
  5
49D
330
679
100
AcDbEntity
  8
GTS
100
AcDbBlockReference
  2
D65
 10
4.507
 20
2.439
 30
0.0
  0
INSERT
  5
49E
330
679
100
AcDbEntity
  8
GTS
100
AcDbBlockReference
  2
D65
 10
4.607
 20
2.439
 30
0.0
  0
INSERT
  5
49F
330
679
100
AcDbEntity
  8
GTS
100
AcDbBlockReference
  2
D65
 10
4.507
 20
2.339
 30
0.0
  0
INSERT
  5
4A0
330
679
100
AcDbEntity
  8
GTS
100
AcDbBlockReference
  2
D65
 10
4.607
 20
2.339
 30
0.0
  0
INSERT
  5
4A1
330
679
100
AcDbEntity
  8
GTS
100
AcDbBlockReference
  2
D65
 10
4.507
 20
2.239
 30
0.0
  0
INSERT
  5
4A2
330
679
100
AcDbEntity
  8
GTS
100
AcDbBlockReference
  2
D65
 10
4.607
 20
2.239
 30
0.0
  0
INSERT
  5
4A3
330
679
100
AcDbEntity
  8
GTS
100
AcDbBlockReference
  2
D65
 10
4.507
 20
2.139
 30
0.0
  0
INSERT
  5
4A4
330
679
100
AcDbEntity
  8
GTS
100
AcDbBlockReference
  2
D65
 10
4.607
 20
2.139
 30
0.0
  0
INSERT
  5
4A5
330
679
100
AcDbEntity
  8
GTS
100
AcDbBlockReference
  2
D65
 10
4.507
 20
2.039
 30
0.0
  0
INSERT
  5
4A6
330
679
100
AcDbEntity
  8
GTS
100
AcDbBlockReference
  2
D65
 10
4.607
 20
2.039
 30
0.0
  0
INSERT
  5
4A7
330
679
100
AcDbEntity
  8
GTS
100
AcDbBlockReference
  2
D65
 10
4.507
 20
1.939
 30
0.0
  0
INSERT
  5
4A8
330
679
100
AcDbEntity
  8
GTS
100
AcDbBlockReference
  2
D65
 10
4.607
 20
1.939
 30
0.0
  0
INSERT
  5
4A9
330
679
100
AcDbEntity
  8
GTS
100
AcDbBlockReference
  2
D65
 10
4.507
 20
1.839
 30
0.0
  0
INSERT
  5
4AA
330
679
100
AcDbEntity
  8
GTS
100
AcDbBlockReference
  2
D65
 10
4.607
 20
1.839
 30
0.0
  0
INSERT
  5
4AB
330
679
100
AcDbEntity
  8
GTS
100
AcDbBlockReference
  2
D65
 10
4.507
 20
1.739
 30
0.0
  0
INSERT
  5
4AC
330
679
100
AcDbEntity
  8
GTS
100
AcDbBlockReference
  2
D65
 10
4.607
 20
1.739
 30
0.0
  0
INSERT
  5
4AD
330
679
100
AcDbEntity
  8
GTS
100
AcDbBlockReference
  2
D65
 10
4.507
 20
1.639
 30
0.0
  0
INSERT
  5
4AE
330
679
100
AcDbEntity
  8
GTS
100
AcDbBlockReference
  2
D65
 10
4.607
 20
1.639
 30
0.0
  0
INSERT
  5
4AF
330
679
100
AcDbEntity
  8
GTS
100
AcDbBlockReference
  2
D65
 10
4.507
 20
1.539
 30
0.0
  0
INSERT
  5
4B0
330
679
100
AcDbEntity
  8
GTS
100
AcDbBlockReference
  2
D65
 10
4.607
 20
1.539
 30
0.0
  0
INSERT
  5
4B1
330
679
100
AcDbEntity
  8
GTS
100
AcDbBlockReference
  2
D65
 10
4.507
 20
1.439
 30
0.0
  0
INSERT
  5
4B2
330
679
100
AcDbEntity
  8
GTS
100
AcDbBlockReference
  2
D65
 10
4.607
 20
1.439
 30
0.0
  0
INSERT
  5
4B3
330
679
100
AcDbEntity
  8
GTS
100
AcDbBlockReference
  2
D65
 10
4.507
 20
1.339
 30
0.0
  0
INSERT
  5
4B4
330
679
100
AcDbEntity
  8
GTS
100
AcDbBlockReference
  2
D65
 10
4.607
 20
1.339
 30
0.0
  0
INSERT
  5
4B5
330
679
100
AcDbEntity
  8
GTS
100
AcDbBlockReference
  2
D65
 10
4.507
 20
1.239
 30
0.0
  0
INSERT
  5
4B6
330
679
100
AcDbEntity
  8
GTS
100
AcDbBlockReference
  2
D65
 10
4.607
 20
1.239
 30
0.0
  0
INSERT
  5
4B7
330
679
100
AcDbEntity
  8
GTS
100
AcDbBlockReference
  2
D65
 10
4.507
 20
1.139
 30
0.0
  0
INSERT
  5
4B8
330
679
100
AcDbEntity
  8
GTS
100
AcDbBlockReference
  2
D65
 10
4.607
 20
1.139
 30
0.0
  0
INSERT
  5
4B9
330
679
100
AcDbEntity
  8
GTS
100
AcDbBlockReference
  2
D65
 10
4.507
 20
1.039
 30
0.0
  0
INSERT
  5
4BA
330
679
100
AcDbEntity
  8
GTS
100
AcDbBlockReference
  2
D65
 10
4.607
 20
1.039
 30
0.0
  0
INSERT
  5
4BB
330
679
100
AcDbEntity
  8
GTS
100
AcDbBlockReference
  2
D66
 10
1.149
 20
0.869
 30
0.0
  0
INSERT
  5
4BC
330
679
100
AcDbEntity
  8
GTS
100
AcDbBlockReference
  2
D67
 10
1.267
 20
1.066
 30
0.0
  0
INSERT
  5
4BD
330
679
100
AcDbEntity
  8
GTS
100
AcDbBlockReference
  2
D67
 10
1.031
 20
1.066
 30
0.0
  0
INSERT
  5
4BE
330
679
100
AcDbEntity
  8
GTS
100
AcDbBlockReference
  2
D68
 10
1.179
 20
0.869
 30
0.0
  0
INSERT
  5
4BF
330
679
100
AcDbEntity
  8
GTS
100
AcDbBlockReference
  2
D68
 10
1.119
 20
0.869
 30
0.0
  0
INSERT
  5
4C0
330
679
100
AcDbEntity
  8
GTS
100
AcDbBlockReference
  2
D68
 10
1.031
 20
1.036
 30
0.0
  0
INSERT
  5
4C1
330
679
100
AcDbEntity
  8
GTS
100
AcDbBlockReference
  2
D68
 10
1.031
 20
1.096
 30
0.0
  0
INSERT
  5
4C2
330
679
100
AcDbEntity
  8
GTS
100
AcDbBlockReference
  2
D68
 10
1.267
 20
1.036
 30
0.0
  0
INSERT
  5
4C3
330
679
100
AcDbEntity
  8
GTS
100
AcDbBlockReference
  2
D68
 10
1.267
 20
1.096
 30
0.0
  0
INSERT
  5
4C4
330
679
100
AcDbEntity
  8
GTS
100
AcDbBlockReference
  2
D69
 10
0.872
 20
2.396
 30
0.0
  0
INSERT
  5
4C5
330
679
100
AcDbEntity
  8
GTS
100
AcDbBlockReference
  2
D69
 10
0.864
 20
2.396
 30
0.0
  0
INSERT
  5
4C6
330
679
100
AcDbEntity
  8
GTS
100
AcDbBlockReference
  2
D69
 10
0.857
 20
2.396
 30
0.0
  0
INSERT
  5
4C7
330
679
100
AcDbEntity
  8
GTS
100
AcDbBlockReference
  2
D69
 10
0.872
 20
2.081
 30
0.0
  0
INSERT
  5
4C8
330
679
100
AcDbEntity
  8
GTS
100
AcDbBlockReference
  2
D69
 10
0.864
 20
2.081
 30
0.0
  0
INSERT
  5
4C9
330
679
100
AcDbEntity
  8
GTS
100
AcDbBlockReference
  2
D69
 10
0.857
 20
2.081
 30
0.0
  0
INSERT
  5
4CA
330
679
100
AcDbEntity
  8
GTS
100
AcDbBlockReference
  2
D69
 10
0.989
 20
2.329
 30
0.0
  0
INSERT
  5
4CB
330
679
100
AcDbEntity
  8
GTS
100
AcDbBlockReference
  2
D69
 10
0.977
 20
2.329
 30
0.0
  0
INSERT
  5
4CC
330
679
100
AcDbEntity
  8
GTS
100
AcDbBlockReference
  2
D69
 10
0.989
 20
2.148
 30
0.0
  0
INSERT
  5
4CD
330
679
100
AcDbEntity
  8
GTS
100
AcDbBlockReference
  2
D69
 10
0.977
 20
2.148
 30
0.0
  0
INSERT
  5
4CE
330
679
100
AcDbEntity
  8
GTS
100
AcDbBlockReference
  2
D70
 10
5.179
 20
0.945
 30
0.0
  0
INSERT
  5
4CF
330
679
100
AcDbEntity
  8
GTS
100
AcDbBlockReference
  2
D70
 10
1.744
 20
2.155
 30
0.0
  0
INSERT
  5
4D0
330
679
100
AcDbEntity
  8
GTS
100
AcDbBlockReference
  2
D71
 10
5.129
 20
0.945
 30
0.0
  0
INSERT
  5
4D1
330
679
100
AcDbEntity
  8
GTS
100
AcDbBlockReference
  2
D71
 10
5.179
 20
0.995
 30
0.0
  0
INSERT
  5
4D2
330
679
100
AcDbEntity
  8
GTS
100
AcDbBlockReference
  2
D71
 10
5.129
 20
0.995
 30
0.0
  0
INSERT
  5
4D3
330
679
100
AcDbEntity
  8
GTS
100
AcDbBlockReference
  2
D71
 10
5.179
 20
1.045
 30
0.0
  0
INSERT
  5
4D4
330
679
100
AcDbEntity
  8
GTS
100
AcDbBlockReference
  2
D71
 10
5.129
 20
1.045
 30
0.0
  0
INSERT
  5
4D5
330
679
100
AcDbEntity
  8
GTS
100
AcDbBlockReference
  2
D71
 10
5.179
 20
1.095
 30
0.0
  0
INSERT
  5
4D6
330
679
100
AcDbEntity
  8
GTS
100
AcDbBlockReference
  2
D71
 10
5.129
 20
1.095
 30
0.0
  0
INSERT
  5
4D7
330
679
100
AcDbEntity
  8
GTS
100
AcDbBlockReference
  2
D71
 10
5.179
 20
1.145
 30
0.0
  0
INSERT
  5
4D8
330
679
100
AcDbEntity
  8
GTS
100
AcDbBlockReference
  2
D71
 10
5.129
 20
1.145
 30
0.0
  0
INSERT
  5
4D9
330
679
100
AcDbEntity
  8
GTS
100
AcDbBlockReference
  2
D71
 10
5.179
 20
1.195
 30
0.0
  0
INSERT
  5
4DA
330
679
100
AcDbEntity
  8
GTS
100
AcDbBlockReference
  2
D71
 10
5.129
 20
1.195
 30
0.0
  0
INSERT
  5
4DB
330
679
100
AcDbEntity
  8
GTS
100
AcDbBlockReference
  2
D71
 10
5.179
 20
1.245
 30
0.0
  0
INSERT
  5
4DC
330
679
100
AcDbEntity
  8
GTS
100
AcDbBlockReference
  2
D71
 10
5.129
 20
1.245
 30
0.0
  0
INSERT
  5
4DD
330
679
100
AcDbEntity
  8
GTS
100
AcDbBlockReference
  2
D71
 10
1.694
 20
2.155
 30
0.0
  0
INSERT
  5
4DE
330
679
100
AcDbEntity
  8
GTS
100
AcDbBlockReference
  2
D71
 10
1.744
 20
2.205
 30
0.0
  0
INSERT
  5
4DF
330
679
100
AcDbEntity
  8
GTS
100
AcDbBlockReference
  2
D71
 10
1.694
 20
2.205
 30
0.0
  0
INSERT
  5
4E0
330
679
100
AcDbEntity
  8
GTS
100
AcDbBlockReference
  2
D71
 10
1.744
 20
2.255
 30
0.0
  0
INSERT
  5
4E1
330
679
100
AcDbEntity
  8
GTS
100
AcDbBlockReference
  2
D71
 10
1.694
 20
2.255
 30
0.0
  0
INSERT
  5
4E2
330
679
100
AcDbEntity
  8
GTS
100
AcDbBlockReference
  2
D71
 10
1.744
 20
2.305
 30
0.0
  0
INSERT
  5
4E3
330
679
100
AcDbEntity
  8
GTS
100
AcDbBlockReference
  2
D71
 10
1.694
 20
2.305
 30
0.0
  0
INSERT
  5
4E4
330
679
100
AcDbEntity
  8
GTS
100
AcDbBlockReference
  2
D71
 10
1.744
 20
2.355
 30
0.0
  0
INSERT
  5
4E5
330
679
100
AcDbEntity
  8
GTS
100
AcDbBlockReference
  2
D71
 10
1.694
 20
2.355
 30
0.0
  0
INSERT
  5
4E6
330
679
100
AcDbEntity
  8
GTS
100
AcDbBlockReference
  2
D72
 10
0.968
 20
1.717
 30
0.0
  0
INSERT
  5
4E7
330
679
100
AcDbEntity
  8
GTS
100
AcDbBlockReference
  2
D72
 10
0.968
 20
1.707
 30
0.0
  0
INSERT
  5
4E8
330
679
100
AcDbEntity
  8
GTS
100
AcDbBlockReference
  2
D72
 10
0.852
 20
1.752
 30
0.0
  0
INSERT
  5
4E9
330
679
100
AcDbEntity
  8
GTS
100
AcDbBlockReference
  2
D72
 10
0.872
 20
1.752
 30
0.0
  0
INSERT
  5
4EA
330
679
100
AcDbEntity
  8
GTS
100
AcDbBlockReference
  2
D72
 10
0.872
 20
1.476
 30
0.0
  0
INSERT
  5
4EB
330
679
100
AcDbEntity
  8
GTS
100
AcDbBlockReference
  2
D72
 10
0.852
 20
1.476
 30
0.0
  0
INSERT
  5
4EC
330
679
100
AcDbEntity
  8
GTS
100
AcDbBlockReference
  2
D72
 10
0.968
 20
1.521
 30
0.0
  0
INSERT
  5
4ED
330
679
100
AcDbEntity
  8
GTS
100
AcDbBlockReference
  2
D72
 10
0.968
 20
1.511
 30
0.0
  0
INSERT
  5
4EE
330
679
100
AcDbEntity
  8
GTS
100
AcDbBlockReference
  2
D73
 10
3.819
 20
1.995
 30
0.0
  0
INSERT
  5
4EF
330
679
100
AcDbEntity
  8
GTS
100
AcDbBlockReference
  2
D73
 10
1.423
 20
1.975
 30
0.0
  0
INSERT
  5
4F0
330
679
100
AcDbEntity
  8
GTS
100
AcDbBlockReference
  2
D73
 10
2.003
 20
1.335
 30
0.0
  0
INSERT
  5
4F1
330
679
100
AcDbEntity
  8
GTS
100
AcDbBlockReference
  2
D73
 10
2.099
 20
2.347
 30
0.0
  0
INSERT
  5
4F2
330
679
100
AcDbEntity
  8
GTS
100
AcDbBlockReference
  2
D73
 10
2.191
 20
1.183
 30
0.0
  0
INSERT
  5
4F3
330
679
100
AcDbEntity
  8
GTS
100
AcDbBlockReference
  2
D73
 10
2.391
 20
1.619
 30
0.0
  0
INSERT
  5
4F4
330
679
100
AcDbEntity
  8
GTS
100
AcDbBlockReference
  2
D73
 10
3.771
 20
1.995
 30
0.0
  0
INSERT
  5
4F5
330
679
100
AcDbEntity
  8
GTS
100
AcDbBlockReference
  2
D73
 10
4.131
 20
2.087
 30
0.0
  0
INSERT
  5
4F6
330
679
100
AcDbEntity
  8
GTS
100
AcDbBlockReference
  2
D73
 10
4.063
 20
1.995
 30
0.0
  0
INSERT
  5
4F7
330
679
100
AcDbEntity
  8
GTS
100
AcDbBlockReference
  2
D73
 10
4.203
 20
2.043
 30
0.0
  0
INSERT
  5
4F8
330
679
100
AcDbEntity
  8
GTS
100
AcDbBlockReference
  2
D73
 10
4.203
 20
1.943
 30
0.0
  0
INSERT
  5
4F9
330
679
100
AcDbEntity
  8
GTS
100
AcDbBlockReference
  2
D73
 10
4.131
 20
1.903
 30
0.0
  0
INSERT
  5
4FA
330
679
100
AcDbEntity
  8
GTS
100
AcDbBlockReference
  2
D73
 10
1.957
 20
0.951
 30
0.0
  0
INSERT
  5
4FB
330
679
100
AcDbEntity
  8
GTS
100
AcDbBlockReference
  2
D73
 10
4.419
 20
2.331
 30
0.0
  0
INSERT
  5
4FC
330
679
100
AcDbEntity
  8
GTS
100
AcDbBlockReference
  2
D73
 10
2.543
 20
1.963
 30
0.0
  0
INSERT
  5
4FD
330
679
100
AcDbEntity
  8
GTS
100
AcDbBlockReference
  2
D73
 10
3.263
 20
2.187
 30
0.0
  0
INSERT
  5
4FE
330
679
100
AcDbEntity
  8
GTS
100
AcDbBlockReference
  2
D73
 10
4.023
 20
2.307
 30
0.0
  0
INSERT
  5
4FF
330
679
100
AcDbEntity
  8
GTS
100
AcDbBlockReference
  2
D73
 10
3.803
 20
1.903
 30
0.0
  0
INSERT
  5
500
330
679
100
AcDbEntity
  8
GTS
100
AcDbBlockReference
  2
D73
 10
3.831
 20
1.535
 30
0.0
  0
INSERT
  5
501
330
679
100
AcDbEntity
  8
GTS
100
AcDbBlockReference
  2
D73
 10
3.831
 20
1.579
 30
0.0
  0
INSERT
  5
502
330
679
100
AcDbEntity
  8
GTS
100
AcDbBlockReference
  2
D73
 10
3.831
 20
1.623
 30
0.0
  0
INSERT
  5
503
330
679
100
AcDbEntity
  8
GTS
100
AcDbBlockReference
  2
D73
 10
3.747
 20
1.903
 30
0.0
  0
INSERT
  5
504
330
679
100
AcDbEntity
  8
GTS
100
AcDbBlockReference
  2
D73
 10
4.371
 20
2.331
 30
0.0
  0
INSERT
  5
505
330
679
100
AcDbEntity
  8
GTS
100
AcDbBlockReference
  2
D73
 10
3.831
 20
1.667
 30
0.0
  0
INSERT
  5
506
330
679
100
AcDbEntity
  8
GTS
100
AcDbBlockReference
  2
D73
 10
0.987
 20
2.063
 30
0.0
  0
INSERT
  5
507
330
679
100
AcDbEntity
  8
GTS
100
AcDbBlockReference
  2
D73
 10
3.611
 20
0.835
 30
0.0
  0
INSERT
  5
508
330
679
100
AcDbEntity
  8
GTS
100
AcDbBlockReference
  2
D73
 10
2.523
 20
2.739
 30
0.0
  0
INSERT
  5
509
330
679
100
AcDbEntity
  8
GTS
100
AcDbBlockReference
  2
D73
 10
4.039
 20
1.203
 30
0.0
  0
INSERT
  5
50A
330
679
100
AcDbEntity
  8
GTS
100
AcDbBlockReference
  2
D73
 10
1.049
 20
2.753
 30
0.0
  0
INSERT
  5
50B
330
679
100
AcDbEntity
  8
GTS
100
AcDbBlockReference
  2
D73
 10
3.739
 20
2.079
 30
0.0
  0
INSERT
  5
50C
330
679
100
AcDbEntity
  8
GTS
100
AcDbBlockReference
  2
D73
 10
1.047
 20
1.455
 30
0.0
  0
INSERT
  5
50D
330
679
100
AcDbEntity
  8
GTS
100
AcDbBlockReference
  2
D73
 10
3.817
 20
2.079
 30
0.0
  0
INSERT
  5
50E
330
679
100
AcDbEntity
  8
GTS
100
AcDbBlockReference
  2
D73
 10
3.739
 20
2.127
 30
0.0
  0
INSERT
  5
50F
330
679
100
AcDbEntity
  8
GTS
100
AcDbBlockReference
  2
D73
 10
4.135
 20
1.411
 30
0.0
  0
INSERT
  5
510
330
679
100
AcDbEntity
  8
GTS
100
AcDbBlockReference
  2
D73
 10
4.219
 20
1.539
 30
0.0
  0
INSERT
  5
511
330
679
100
AcDbEntity
  8
GTS
100
AcDbBlockReference
  2
D73
 10
4.171
 20
1.539
 30
0.0
  0
INSERT
  5
512
330
679
100
AcDbEntity
  8
GTS
100
AcDbBlockReference
  2
D73
 10
4.263
 20
1.539
 30
0.0
  0
INSERT
  5
513
330
679
100
AcDbEntity
  8
GTS
100
AcDbBlockReference
  2
D73
 10
3.915
 20
1.415
 30
0.0
  0
INSERT
  5
514
330
679
100
AcDbEntity
  8
GTS
100
AcDbBlockReference
  2
D73
 10
3.583
 20
1.467
 30
0.0
  0
INSERT
  5
515
330
679
100
AcDbEntity
  8
GTS
100
AcDbBlockReference
  2
D73
 10
1.475
 20
2.395
 30
0.0
  0
INSERT
  5
516
330
679
100
AcDbEntity
  8
GTS
100
AcDbBlockReference
  2
D73
 10
1.423
 20
1.851
 30
0.0
  0
INSERT
  5
517
330
679
100
AcDbEntity
  8
GTS
100
AcDbBlockReference
  2
D73
 10
0.975
 20
1.919
 30
0.0
  0
INSERT
  5
518
330
679
100
AcDbEntity
  8
GTS
100
AcDbBlockReference
  2
D73
 10
1.239
 20
1.679
 30
0.0
  0
INSERT
  5
519
330
679
100
AcDbEntity
  8
GTS
100
AcDbBlockReference
  2
D73
 10
2.239
 20
1.735
 30
0.0
  0
INSERT
  5
51A
330
679
100
AcDbEntity
  8
GTS
100
AcDbBlockReference
  2
D73
 10
2.239
 20
1.939
 30
0.0
  0
INSERT
  5
51B
330
679
100
AcDbEntity
  8
GTS
100
AcDbBlockReference
  2
D73
 10
2.211
 20
1.595
 30
0.0
  0
INSERT
  5
51C
330
679
100
AcDbEntity
  8
GTS
100
AcDbBlockReference
  2
D73
 10
2.887
 20
1.715
 30
0.0
  0
INSERT
  5
51D
330
679
100
AcDbEntity
  8
GTS
100
AcDbBlockReference
  2
D73
 10
2.191
 20
2.451
 30
0.0
  0
INSERT
  5
51E
330
679
100
AcDbEntity
  8
GTS
100
AcDbBlockReference
  2
D73
 10
2.607
 20
1.007
 30
0.0
  0
INSERT
  5
51F
330
679
100
AcDbEntity
  8
GTS
100
AcDbBlockReference
  2
D73
 10
2.091
 20
1.011
 30
0.0
  0
INSERT
  5
520
330
679
100
AcDbEntity
  8
GTS
100
AcDbBlockReference
  2
D73
 10
4.147
 20
1.307
 30
0.0
  0
INSERT
  5
521
330
679
100
AcDbEntity
  8
GTS
100
AcDbBlockReference
  2
D73
 10
4.147
 20
1.351
 30
0.0
  0
INSERT
  5
522
330
679
100
AcDbEntity
  8
GTS
100
AcDbBlockReference
  2
D74
 10
3.795
 20
2.263
 30
0.0
  0
INSERT
  5
523
330
679
100
AcDbEntity
  8
GTS
100
AcDbBlockReference
  2
D74
 10
1.415
 20
2.205
 30
0.0
  0
INSERT
  5
524
330
679
100
AcDbEntity
  8
GTS
100
AcDbBlockReference
  2
D74
 10
2.127
 20
1.809
 30
0.0
  0
INSERT
  5
525
330
679
100
AcDbEntity
  8
GTS
100
AcDbBlockReference
  2
D74
 10
2.391
 20
1.714
 30
0.0
  0
INSERT
  5
526
330
679
100
AcDbEntity
  8
GTS
100
AcDbBlockReference
  2
D74
 10
2.847
 20
2.091
 30
0.0
  0
INSERT
  5
527
330
679
100
AcDbEntity
  8
GTS
100
AcDbBlockReference
  2
D74
 10
2.127
 20
1.699
 30
0.0
  0
INSERT
  5
528
330
679
100
AcDbEntity
  8
GTS
100
AcDbBlockReference
  2
D74
 10
3.017
 20
1.427
 30
0.0
  0
INSERT
  5
529
330
679
100
AcDbEntity
  8
GTS
100
AcDbBlockReference
  2
D74
 10
3.083
 20
1.743
 30
0.0
  0
INSERT
  5
52A
330
679
100
AcDbEntity
  8
GTS
100
AcDbBlockReference
  2
D74
 10
0.879
 20
2.471
 30
0.0
  0
INSERT
  5
52B
330
679
100
AcDbEntity
  8
GTS
100
AcDbBlockReference
  2
D74
 10
1.547
 20
1.843
 30
0.0
  0
INSERT
  5
52C
330
679
100
AcDbEntity
  8
GTS
100
AcDbBlockReference
  2
D74
 10
1.419
 20
1.907
 30
0.0
  0
INSERT
  5
52D
330
679
100
AcDbEntity
  8
GTS
100
AcDbBlockReference
  2
D74
 10
1.527
 20
2.407
 30
0.0
  0
INSERT
  5
52E
330
679
100
AcDbEntity
  8
GTS
100
AcDbBlockReference
  2
D74
 10
3.451
 20
2.675
 30
0.0
  0
INSERT
  5
52F
330
679
100
AcDbEntity
  8
GTS
100
AcDbBlockReference
  2
D74
 10
3.807
 20
1.251
 30
0.0
  0
INSERT
  5
530
330
679
100
AcDbEntity
  8
GTS
100
AcDbBlockReference
  2
D74
 10
1.483
 20
1.751
 30
0.0
  0
INSERT
  5
531
330
679
100
AcDbEntity
  8
GTS
100
AcDbBlockReference
  2
D74
 10
1.739
 20
1.723
 30
0.0
  0
INSERT
  5
532
330
679
100
AcDbEntity
  8
GTS
100
AcDbBlockReference
  2
D74
 10
1.407
 20
1.615
 30
0.0
  0
INSERT
  5
533
330
679
100
AcDbEntity
  8
GTS
100
AcDbBlockReference
  2
D74
 10
0.979
 20
1.331
 30
0.0
  0
INSERT
  5
534
330
679
100
AcDbEntity
  8
GTS
100
AcDbBlockReference
  2
D74
 10
1.323
 20
1.423
 30
0.0
  0
INSERT
  5
535
330
679
100
AcDbEntity
  8
GTS
100
AcDbBlockReference
  2
D74
 10
3.349
 20
2.795
 30
0.0
  0
INSERT
  5
536
330
679
100
AcDbEntity
  8
GTS
100
AcDbBlockReference
  2
D74
 10
1.287
 20
2.699
 30
0.0
  0
INSERT
  5
537
330
679
100
AcDbEntity
  8
GTS
100
AcDbBlockReference
  2
D74
 10
1.323
 20
1.311
 30
0.0
  0
INSERT
  5
538
330
679
100
AcDbEntity
  8
GTS
100
AcDbBlockReference
  2
D74
 10
2.683
 20
1.223
 30
0.0
  0
INSERT
  5
539
330
679
100
AcDbEntity
  8
GTS
100
AcDbBlockReference
  2
D74
 10
2.675
 20
0.843
 30
0.0
  0
INSERT
  5
53A
330
679
100
AcDbEntity
  8
GTS
100
AcDbBlockReference
  2
D74
 10
2.503
 20
1.395
 30
0.0
  0
INSERT
  5
53B
330
679
100
AcDbEntity
  8
GTS
100
AcDbBlockReference
  2
D74
 10
2.471
 20
0.947
 30
0.0
  0
INSERT
  5
53C
330
679
100
AcDbEntity
  8
GTS
100
AcDbBlockReference
  2
D74
 10
2.515
 20
1.279
 30
0.0
  0
INSERT
  5
53D
330
679
100
AcDbEntity
  8
GTS
100
AcDbBlockReference
  2
D74
 10
2.515
 20
0.947
 30
0.0
  0
INSERT
  5
53E
330
679
100
AcDbEntity
  8
GTS
100
AcDbBlockReference
  2
D74
 10
2.545
 20
1.395
 30
0.0
  0
INSERT
  5
53F
330
679
100
AcDbEntity
  8
GTS
100
AcDbBlockReference
  2
D74
 10
2.671
 20
0.919
 30
0.0
  0
INSERT
  5
540
330
679
100
AcDbEntity
  8
GTS
100
AcDbBlockReference
  2
D74
 10
2.575
 20
1.423
 30
0.0
  0
INSERT
  5
541
330
679
100
AcDbEntity
  8
GTS
100
AcDbBlockReference
  2
D74
 10
2.723
 20
0.931
 30
0.0
  0
INSERT
  5
542
330
679
100
AcDbEntity
  8
GTS
100
AcDbBlockReference
  2
D74
 10
2.555
 20
1.279
 30
0.0
  0
INSERT
  5
543
330
679
100
AcDbEntity
  8
GTS
100
AcDbBlockReference
  2
D74
 10
2.555
 20
0.947
 30
0.0
  0
INSERT
  5
544
330
679
100
AcDbEntity
  8
GTS
100
AcDbBlockReference
  2
D74
 10
2.604
 20
1.395
 30
0.0
  0
INSERT
  5
545
330
679
100
AcDbEntity
  8
GTS
100
AcDbBlockReference
  2
D74
 10
2.687
 20
0.979
 30
0.0
  0
INSERT
  5
546
330
679
100
AcDbEntity
  8
GTS
100
AcDbBlockReference
  2
D74
 10
2.643
 20
1.271
 30
0.0
  0
INSERT
  5
547
330
679
100
AcDbEntity
  8
GTS
100
AcDbBlockReference
  2
D74
 10
2.719
 20
1.007
 30
0.0
  0
INSERT
  5
548
330
679
100
AcDbEntity
  8
GTS
100
AcDbBlockReference
  2
D74
 10
2.683
 20
1.395
 30
0.0
  0
INSERT
  5
549
330
679
100
AcDbEntity
  8
GTS
100
AcDbBlockReference
  2
D74
 10
2.783
 20
1.047
 30
0.0
  0
INSERT
  5
54A
330
679
100
AcDbEntity
  8
GTS
100
AcDbBlockReference
  2
D74
 10
2.683
 20
1.263
 30
0.0
  0
INSERT
  5
54B
330
679
100
AcDbEntity
  8
GTS
100
AcDbBlockReference
  2
D74
 10
2.743
 20
1.063
 30
0.0
  0
INSERT
  5
54C
330
679
100
AcDbEntity
  8
GTS
100
AcDbBlockReference
  2
D74
 10
2.759
 20
1.275
 30
0.0
  0
INSERT
  5
54D
330
679
100
AcDbEntity
  8
GTS
100
AcDbBlockReference
  2
D74
 10
3.227
 20
1.075
 30
0.0
  0
INSERT
  5
54E
330
679
100
AcDbEntity
  8
GTS
100
AcDbBlockReference
  2
D74
 10
2.715
 20
1.423
 30
0.0
  0
INSERT
  5
54F
330
679
100
AcDbEntity
  8
GTS
100
AcDbBlockReference
  2
D74
 10
3.087
 20
1.047
 30
0.0
  0
INSERT
  5
550
330
679
100
AcDbEntity
  8
GTS
100
AcDbBlockReference
  2
D74
 10
2.715
 20
1.463
 30
0.0
  0
INSERT
  5
551
330
679
100
AcDbEntity
  8
GTS
100
AcDbBlockReference
  2
D74
 10
2.811
 20
1.143
 30
0.0
  0
INSERT
  5
552
330
679
100
AcDbEntity
  8
GTS
100
AcDbBlockReference
  2
D74
 10
1.875
 20
1.667
 30
0.0
  0
INSERT
  5
553
330
679
100
AcDbEntity
  8
GTS
100
AcDbBlockReference
  2
D74
 10
1.943
 20
1.219
 30
0.0
  0
INSERT
  5
554
330
679
100
AcDbEntity
  8
GTS
100
AcDbBlockReference
  2
D74
 10
1.955
 20
1.427
 30
0.0
  0
INSERT
  5
555
330
679
100
AcDbEntity
  8
GTS
100
AcDbBlockReference
  2
D74
 10
1.223
 20
1.767
 30
0.0
  0
INSERT
  5
556
330
679
100
AcDbEntity
  8
GTS
100
AcDbBlockReference
  2
D74
 10
1.315
 20
1.687
 30
0.0
  0
INSERT
  5
557
330
679
100
AcDbEntity
  8
GTS
100
AcDbBlockReference
  2
D74
 10
4.171
 20
1.175
 30
0.0
  0
INSERT
  5
558
330
679
100
AcDbEntity
  8
GTS
100
AcDbBlockReference
  2
D74
 10
3.147
 20
1.315
 30
0.0
  0
INSERT
  5
559
330
679
100
AcDbEntity
  8
GTS
100
AcDbBlockReference
  2
D74
 10
2.951
 20
2.007
 30
0.0
  0
INSERT
  5
55A
330
679
100
AcDbEntity
  8
GTS
100
AcDbBlockReference
  2
D74
 10
2.607
 20
2.123
 30
0.0
  0
INSERT
  5
55B
330
679
100
AcDbEntity
  8
GTS
100
AcDbBlockReference
  2
D74
 10
2.667
 20
1.943
 30
0.0
  0
INSERT
  5
55C
330
679
100
AcDbEntity
  8
GTS
100
AcDbBlockReference
  2
D74
 10
2.651
 20
2.123
 30
0.0
  0
INSERT
  5
55D
330
679
100
AcDbEntity
  8
GTS
100
AcDbBlockReference
  2
D74
 10
2.711
 20
1.943
 30
0.0
  0
INSERT
  5
55E
330
679
100
AcDbEntity
  8
GTS
100
AcDbBlockReference
  2
D74
 10
2.991
 20
1.991
 30
0.0
  0
INSERT
  5
55F
330
679
100
AcDbEntity
  8
GTS
100
AcDbBlockReference
  2
D74
 10
3.147
 20
1.355
 30
0.0
  0
INSERT
  5
560
330
679
100
AcDbEntity
  8
GTS
100
AcDbBlockReference
  2
D74
 10
4.203
 20
1.211
 30
0.0
  0
INSERT
  5
561
330
679
100
AcDbEntity
  8
GTS
100
AcDbBlockReference
  2
D74
 10
3.259
 20
2.099
 30
0.0
  0
INSERT
  5
562
330
679
100
AcDbEntity
  8
GTS
100
AcDbBlockReference
  2
D74
 10
3.235
 20
2.407
 30
0.0
  0
INSERT
  5
563
330
679
100
AcDbEntity
  8
GTS
100
AcDbBlockReference
  2
D74
 10
4.227
 20
2.371
 30
0.0
  0
INSERT
  5
564
330
679
100
AcDbEntity
  8
GTS
100
AcDbBlockReference
  2
D74
 10
4.399
 20
1.091
 30
0.0
  0
INSERT
  5
565
330
679
100
AcDbEntity
  8
GTS
100
AcDbBlockReference
  2
D74
 10
1.711
 20
1.787
 30
0.0
  0
INSERT
  5
566
330
679
100
AcDbEntity
  8
GTS
100
AcDbBlockReference
  2
D74
 10
1.535
 20
1.887
 30
0.0
  0
INSERT
  5
567
330
679
100
AcDbEntity
  8
GTS
100
AcDbBlockReference
  2
D74
 10
2.619
 20
1.183
 30
0.0
  0
INSERT
  5
568
330
679
100
AcDbEntity
  8
GTS
100
AcDbBlockReference
  2
D74
 10
2.655
 20
1.071
 30
0.0
  0
INSERT
  5
569
330
679
100
AcDbEntity
  8
GTS
100
AcDbBlockReference
  2
D74
 10
2.607
 20
1.223
 30
0.0
  0
INSERT
  5
56A
330
679
100
AcDbEntity
  8
GTS
100
AcDbBlockReference
  2
D74
 10
2.619
 20
1.099
 30
0.0
  0
INSERT
  5
56B
330
679
100
AcDbEntity
  8
GTS
100
AcDbBlockReference
  2
D74
 10
1.739
 20
1.623
 30
0.0
  0
INSERT
  5
56C
330
679
100
AcDbEntity
  8
GTS
100
AcDbBlockReference
  2
D74
 10
1.915
 20
1.443
 30
0.0
  0
INSERT
  5
56D
330
679
100
AcDbEntity
  8
GTS
100
AcDbBlockReference
  2
D74
 10
2.483
 20
1.451
 30
0.0
  0
INSERT
  5
56E
330
679
100
AcDbEntity
  8
GTS
100
AcDbBlockReference
  2
D74
 10
2.603
 20
1.803
 30
0.0
  0
INSERT
  5
56F
330
679
100
AcDbEntity
  8
GTS
100
AcDbBlockReference
  2
D74
 10
3.295
 20
2.291
 30
0.0
  0
INSERT
  5
570
330
679
100
AcDbEntity
  8
GTS
100
AcDbBlockReference
  2
D74
 10
2.775
 20
2.079
 30
0.0
  0
INSERT
  5
571
330
679
100
AcDbEntity
  8
GTS
100
AcDbBlockReference
  2
D74
 10
3.507
 20
2.259
 30
0.0
  0
INSERT
  5
572
330
679
100
AcDbEntity
  8
GTS
100
AcDbBlockReference
  2
D74
 10
3.251
 20
1.823
 30
0.0
  0
INSERT
  5
573
330
679
100
AcDbEntity
  8
GTS
100
AcDbBlockReference
  2
D74
 10
2.311
 20
1.187
 30
0.0
  0
INSERT
  5
574
330
679
100
AcDbEntity
  8
GTS
100
AcDbBlockReference
  2
D74
 10
0.895
 20
0.931
 30
0.0
  0
INSERT
  5
575
330
679
100
AcDbEntity
  8
GTS
100
AcDbBlockReference
  2
D74
 10
0.895
 20
1.171
 30
0.0
  0
INSERT
  5
576
330
679
100
AcDbEntity
  8
GTS
100
AcDbBlockReference
  2
D74
 10
1.207
 20
1.171
 30
0.0
  0
INSERT
  5
577
330
679
100
AcDbEntity
  8
GTS
100
AcDbBlockReference
  2
D74
 10
1.115
 20
2.487
 30
0.0
  0
INSERT
  5
578
330
679
100
AcDbEntity
  8
GTS
100
AcDbBlockReference
  2
D74
 10
4.711
 20
1.196
 30
0.0
  0
INSERT
  5
579
330
679
100
AcDbEntity
  8
GTS
100
AcDbBlockReference
  2
D74
 10
4.711
 20
1.494
 30
0.0
  0
INSERT
  5
57A
330
679
100
AcDbEntity
  8
GTS
100
AcDbBlockReference
  2
D74
 10
4.711
 20
1.799
 30
0.0
  0
INSERT
  5
57B
330
679
100
AcDbEntity
  8
GTS
100
AcDbBlockReference
  2
D74
 10
4.711
 20
2.095
 30
0.0
  0
INSERT
  5
57C
330
679
100
AcDbEntity
  8
GTS
100
AcDbBlockReference
  2
D74
 10
1.003
 20
2.411
 30
0.0
  0
INSERT
  5
57D
330
679
100
AcDbEntity
  8
GTS
100
AcDbBlockReference
  2
D74
 10
2.119
 20
2.027
 30
0.0
  0
INSERT
  5
57E
330
679
100
AcDbEntity
  8
GTS
100
AcDbBlockReference
  2
D74
 10
2.319
 20
1.299
 30
0.0
  0
INSERT
  5
57F
330
679
100
AcDbEntity
  8
GTS
100
AcDbBlockReference
  2
D74
 10
2.183
 20
1.691
 30
0.0
  0
INSERT
  5
580
330
679
100
AcDbEntity
  8
GTS
100
AcDbBlockReference
  2
D74
 10
3.063
 20
2.079
 30
0.0
  0
INSERT
  5
581
330
679
100
AcDbEntity
  8
GTS
100
AcDbBlockReference
  2
D74
 10
3.471
 20
1.667
 30
0.0
  0
INSERT
  5
582
330
679
100
AcDbEntity
  8
GTS
100
AcDbBlockReference
  2
D74
 10
3.537
 20
2.195
 30
0.0
  0
INSERT
  5
583
330
679
100
AcDbEntity
  8
GTS
100
AcDbBlockReference
  2
D74
 10
1.047
 20
0.931
 30
0.0
  0
INSERT
  5
584
330
679
100
AcDbEntity
  8
GTS
100
AcDbBlockReference
  2
D74
 10
2.023
 20
1.999
 30
0.0
  0
INSERT
  5
585
330
679
100
AcDbEntity
  8
GTS
100
AcDbBlockReference
  2
D74
 10
2.495
 20
2.019
 30
0.0
  0
INSERT
  5
586
330
679
100
AcDbEntity
  8
GTS
100
AcDbBlockReference
  2
D74
 10
1.907
 20
1.979
 30
0.0
  0
INSERT
  5
587
330
679
100
AcDbEntity
  8
GTS
100
AcDbBlockReference
  2
D74
 10
2.432
 20
1.695
 30
0.0
  0
INSERT
  5
588
330
679
100
AcDbEntity
  8
GTS
100
AcDbBlockReference
  2
D74
 10
1.251
 20
0.931
 30
0.0
  0
INSERT
  5
589
330
679
100
AcDbEntity
  8
GTS
100
AcDbBlockReference
  2
D74
 10
1.115
 20
1.519
 30
0.0
  0
INSERT
  5
58A
330
679
100
AcDbEntity
  8
GTS
100
AcDbBlockReference
  2
D74
 10
1.183
 20
1.287
 30
0.0
  0
INSERT
  5
58B
330
679
100
AcDbEntity
  8
GTS
100
AcDbBlockReference
  2
D74
 10
1.107
 20
1.763
 30
0.0
  0
INSERT
  5
58C
330
679
100
AcDbEntity
  8
GTS
100
AcDbBlockReference
  2
D74
 10
1.603
 20
1.939
 30
0.0
  0
INSERT
  5
58D
330
679
100
AcDbEntity
  8
GTS
100
AcDbBlockReference
  2
D74
 10
1.663
 20
1.911
 30
0.0
  0
INSERT
  5
58E
330
679
100
AcDbEntity
  8
GTS
100
AcDbBlockReference
  2
D74
 10
1.795
 20
1.843
 30
0.0
  0
INSERT
  5
58F
330
679
100
AcDbEntity
  8
GTS
100
AcDbBlockReference
  2
D74
 10
1.947
 20
1.883
 30
0.0
  0
INSERT
  5
590
330
679
100
AcDbEntity
  8
GTS
100
AcDbBlockReference
  2
D74
 10
1.615
 20
1.051
 30
0.0
  0
INSERT
  5
591
330
679
100
AcDbEntity
  8
GTS
100
AcDbBlockReference
  2
D74
 10
1.679
 20
1.051
 30
0.0
  0
INSERT
  5
592
330
679
100
AcDbEntity
  8
GTS
100
AcDbBlockReference
  2
D74
 10
1.815
 20
1.051
 30
0.0
  0
INSERT
  5
593
330
679
100
AcDbEntity
  8
GTS
100
AcDbBlockReference
  2
D74
 10
1.887
 20
2.171
 30
0.0
  0
INSERT
  5
594
330
679
100
AcDbEntity
  8
GTS
100
AcDbBlockReference
  2
D74
 10
1.119
 20
2.395
 30
0.0
  0
INSERT
  5
595
330
679
100
AcDbEntity
  8
GTS
100
AcDbBlockReference
  2
D74
 10
1.547
 20
2.619
 30
0.0
  0
INSERT
  5
596
330
679
100
AcDbEntity
  8
GTS
100
AcDbBlockReference
  2
D74
 10
1.275
 20
2.583
 30
0.0
  0
INSERT
  5
597
330
679
100
AcDbEntity
  8
GTS
100
AcDbBlockReference
  2
D74
 10
1.615
 20
1.743
 30
0.0
  0
INSERT
  5
598
330
679
100
AcDbEntity
  8
GTS
100
AcDbBlockReference
  2
D74
 10
2.019
 20
1.615
 30
0.0
  0
INSERT
  5
599
330
679
100
AcDbEntity
  8
GTS
100
AcDbBlockReference
  2
D74
 10
1.367
 20
1.215
 30
0.0
  0
INSERT
  5
59A
330
679
100
AcDbEntity
  8
GTS
100
AcDbBlockReference
  2
D74
 10
1.467
 20
1.563
 30
0.0
  0
INSERT
  5
59B
330
679
100
AcDbEntity
  8
GTS
100
AcDbBlockReference
  2
D74
 10
3.063
 20
1.407
 30
0.0
  0
INSERT
  5
59C
330
679
100
AcDbEntity
  8
GTS
100
AcDbBlockReference
  2
D74
 10
2.055
 20
1.783
 30
0.0
  0
INSERT
  5
59D
330
679
100
AcDbEntity
  8
GTS
100
AcDbBlockReference
  2
D74
 10
3.283
 20
1.679
 30
0.0
  0
INSERT
  5
59E
330
679
100
AcDbEntity
  8
GTS
100
AcDbBlockReference
  2
D74
 10
3.555
 20
2.791
 30
0.0
  0
INSERT
  5
59F
330
679
100
AcDbEntity
  8
GTS
100
AcDbBlockReference
  2
D74
 10
3.257
 20
2.691
 30
0.0
  0
INSERT
  5
5A0
330
679
100
AcDbEntity
  8
GTS
100
AcDbBlockReference
  2
D74
 10
3.993
 20
1.695
 30
0.0
  0
INSERT
  5
5A1
330
679
100
AcDbEntity
  8
GTS
100
AcDbBlockReference
  2
D74
 10
2.535
 20
2.123
 30
0.0
  0
INSERT
  5
5A2
330
679
100
AcDbEntity
  8
GTS
100
AcDbBlockReference
  2
D74
 10
2.555
 20
2.555
 30
0.0
  0
INSERT
  5
5A3
330
679
100
AcDbEntity
  8
GTS
100
AcDbBlockReference
  2
D74
 10
1.607
 20
2.527
 30
0.0
  0
INSERT
  5
5A4
330
679
100
AcDbEntity
  8
GTS
100
AcDbBlockReference
  2
D74
 10
1.607
 20
2.205
 30
0.0
  0
INSERT
  5
5A5
330
679
100
AcDbEntity
  8
GTS
100
AcDbBlockReference
  2
D74
 10
2.015
 20
2.575
 30
0.0
  0
INSERT
  5
5A6
330
679
100
AcDbEntity
  8
GTS
100
AcDbBlockReference
  2
D74
 10
2.527
 20
2.287
 30
0.0
  0
INSERT
  5
5A7
330
679
100
AcDbEntity
  8
GTS
100
AcDbBlockReference
  2
D74
 10
2.499
 20
2.651
 30
0.0
  0
INSERT
  5
5A8
330
679
100
AcDbEntity
  8
GTS
100
AcDbBlockReference
  2
D74
 10
1.679
 20
2.651
 30
0.0
  0
INSERT
  5
5A9
330
679
100
AcDbEntity
  8
GTS
100
AcDbBlockReference
  2
D74
 10
1.635
 20
2.579
 30
0.0
  0
INSERT
  5
5AA
330
679
100
AcDbEntity
  8
GTS
100
AcDbBlockReference
  2
D74
 10
2.499
 20
2.579
 30
0.0
  0
INSERT
  5
5AB
330
679
100
AcDbEntity
  8
GTS
100
AcDbBlockReference
  2
D74
 10
2.507
 20
2.091
 30
0.0
  0
INSERT
  5
5AC
330
679
100
AcDbEntity
  8
GTS
100
AcDbBlockReference
  2
D74
 10
2.479
 20
2.251
 30
0.0
  0
INSERT
  5
5AD
330
679
100
AcDbEntity
  8
GTS
100
AcDbBlockReference
  2
D74
 10
2.459
 20
2.587
 30
0.0
  0
INSERT
  5
5AE
330
679
100
AcDbEntity
  8
GTS
100
AcDbBlockReference
  2
D74
 10
1.607
 20
2.611
 30
0.0
  0
INSERT
  5
5AF
330
679
100
AcDbEntity
  8
GTS
100
AcDbBlockReference
  2
D74
 10
1.575
 20
2.153
 30
0.0
  0
INSERT
  5
5B0
330
679
100
AcDbEntity
  8
GTS
100
AcDbBlockReference
  2
D74
 10
1.915
 20
2.607
 30
0.0
  0
INSERT
  5
5B1
330
679
100
AcDbEntity
  8
GTS
100
AcDbBlockReference
  2
D74
 10
2.395
 20
1.943
 30
0.0
  0
INSERT
  5
5B2
330
679
100
AcDbEntity
  8
GTS
100
AcDbBlockReference
  2
D74
 10
1.999
 20
2.679
 30
0.0
  0
INSERT
  5
5B3
330
679
100
AcDbEntity
  8
GTS
100
AcDbBlockReference
  2
D74
 10
3.255
 20
0.971
 30
0.0
  0
INSERT
  5
5B4
330
679
100
AcDbEntity
  8
GTS
100
AcDbBlockReference
  2
D74
 10
2.315
 20
0.967
 30
0.0
  0
INSERT
  5
5B5
330
679
100
AcDbEntity
  8
GTS
100
AcDbBlockReference
  2
D74
 10
2.147
 20
1.459
 30
0.0
  0
INSERT
  5
5B6
330
679
100
AcDbEntity
  8
GTS
100
AcDbBlockReference
  2
D74
 10
1.811
 20
1.487
 30
0.0
  0
INSERT
  5
5B7
330
679
100
AcDbEntity
  8
GTS
100
AcDbBlockReference
  2
D74
 10
2.031
 20
2.371
 30
0.0
  0
INSERT
  5
5B8
330
679
100
AcDbEntity
  8
GTS
100
AcDbBlockReference
  2
D74
 10
2.015
 20
1.423
 30
0.0
  0
INSERT
  5
5B9
330
679
100
AcDbEntity
  8
GTS
100
AcDbBlockReference
  2
D74
 10
3.527
 20
1.467
 30
0.0
  0
INSERT
  5
5BA
330
679
100
AcDbEntity
  8
GTS
100
AcDbBlockReference
  2
D74
 10
1.623
 20
1.403
 30
0.0
  0
INSERT
  5
5BB
330
679
100
AcDbEntity
  8
GTS
100
AcDbBlockReference
  2
D74
 10
3.575
 20
1.535
 30
0.0
  0
INSERT
  5
5BC
330
679
100
AcDbEntity
  8
GTS
100
AcDbBlockReference
  2
D74
 10
3.563
 20
1.823
 30
0.0
  0
INSERT
  5
5BD
330
679
100
AcDbEntity
  8
GTS
100
AcDbBlockReference
  2
D74
 10
1.623
 20
1.359
 30
0.0
  0
INSERT
  5
5BE
330
679
100
AcDbEntity
  8
GTS
100
AcDbBlockReference
  2
D74
 10
1.847
 20
1.979
 30
0.0
  0
INSERT
  5
5BF
330
679
100
AcDbEntity
  8
GTS
100
AcDbBlockReference
  2
D74
 10
1.903
 20
1.791
 30
0.0
  0
INSERT
  5
5C0
330
679
100
AcDbEntity
  8
GTS
100
AcDbBlockReference
  2
D74
 10
3.179
 20
2.211
 30
0.0
  0
INSERT
  5
5C1
330
679
100
AcDbEntity
  8
GTS
100
AcDbBlockReference
  2
D74
 10
3.407
 20
2.559
 30
0.0
  0
INSERT
  5
5C2
330
679
100
AcDbEntity
  8
GTS
100
AcDbBlockReference
  2
D74
 10
3.155
 20
2.291
 30
0.0
  0
INSERT
  5
5C3
330
679
100
AcDbEntity
  8
GTS
100
AcDbBlockReference
  2
D74
 10
3.547
 20
2.603
 30
0.0
  0
INSERT
  5
5C4
330
679
100
AcDbEntity
  8
GTS
100
AcDbBlockReference
  2
D74
 10
2.943
 20
2.487
 30
0.0
  0
INSERT
  5
5C5
330
679
100
AcDbEntity
  8
GTS
100
AcDbBlockReference
  2
D74
 10
2.943
 20
2.271
 30
0.0
  0
INSERT
  5
5C6
330
679
100
AcDbEntity
  8
GTS
100
AcDbBlockReference
  2
D74
 10
2.829
 20
2.243
 30
0.0
  0
INSERT
  5
5C7
330
679
100
AcDbEntity
  8
GTS
100
AcDbBlockReference
  2
D74
 10
2.835
 20
2.575
 30
0.0
  0
INSERT
  5
5C8
330
679
100
AcDbEntity
  8
GTS
100
AcDbBlockReference
  2
D74
 10
2.855
 20
2.471
 30
0.0
  0
INSERT
  5
5C9
330
679
100
AcDbEntity
  8
GTS
100
AcDbBlockReference
  2
D74
 10
2.791
 20
2.123
 30
0.0
  0
INSERT
  5
5CA
330
679
100
AcDbEntity
  8
GTS
100
AcDbBlockReference
  2
D74
 10
2.815
 20
2.487
 30
0.0
  0
INSERT
  5
5CB
330
679
100
AcDbEntity
  8
GTS
100
AcDbBlockReference
  2
D74
 10
2.795
 20
2.291
 30
0.0
  0
INSERT
  5
5CC
330
679
100
AcDbEntity
  8
GTS
100
AcDbBlockReference
  2
D74
 10
2.767
 20
2.323
 30
0.0
  0
INSERT
  5
5CD
330
679
100
AcDbEntity
  8
GTS
100
AcDbBlockReference
  2
D74
 10
2.775
 20
2.439
 30
0.0
  0
INSERT
  5
5CE
330
679
100
AcDbEntity
  8
GTS
100
AcDbBlockReference
  2
D74
 10
2.647
 20
2.295
 30
0.0
  0
INSERT
  5
5CF
330
679
100
AcDbEntity
  8
GTS
100
AcDbBlockReference
  2
D74
 10
2.663
 20
2.535
 30
0.0
  0
INSERT
  5
5D0
330
679
100
AcDbEntity
  8
GTS
100
AcDbBlockReference
  2
D74
 10
4.335
 20
2.551
 30
0.0
  0
INSERT
  5
5D1
330
679
100
AcDbEntity
  8
GTS
100
AcDbBlockReference
  2
D74
 10
2.643
 20
2.255
 30
0.0
  0
INSERT
  5
5D2
330
679
100
AcDbEntity
  8
GTS
100
AcDbBlockReference
  2
D74
 10
2.683
 20
2.623
 30
0.0
  0
INSERT
  5
5D3
330
679
100
AcDbEntity
  8
GTS
100
AcDbBlockReference
  2
D74
 10
2.587
 20
2.243
 30
0.0
  0
INSERT
  5
5D4
330
679
100
AcDbEntity
  8
GTS
100
AcDbBlockReference
  2
D74
 10
2.611
 20
2.595
 30
0.0
  0
INSERT
  5
5D5
330
679
100
AcDbEntity
  8
GTS
100
AcDbBlockReference
  2
D74
 10
4.299
 20
2.523
 30
0.0
  0
INSERT
  5
5D6
330
679
100
AcDbEntity
  8
GTS
100
AcDbBlockReference
  2
D74
 10
4.311
 20
2.291
 30
0.0
  0
INSERT
  5
5D7
330
679
100
AcDbEntity
  8
GTS
100
AcDbBlockReference
  2
D74
 10
2.479
 20
2.123
 30
0.0
  0
INSERT
  5
5D8
330
679
100
AcDbEntity
  8
GTS
100
AcDbBlockReference
  2
D74
 10
2.555
 20
2.595
 30
0.0
  0
INSERT
  5
5D9
330
679
100
AcDbEntity
  8
GTS
100
AcDbBlockReference
  2
D74
 10
4.255
 20
2.523
 30
0.0
  0
INSERT
  5
5DA
330
679
100
AcDbEntity
  8
GTS
100
AcDbBlockReference
  2
D74
 10
4.255
 20
2.163
 30
0.0
  0
INSERT
  5
5DB
330
679
100
AcDbEntity
  8
GTS
100
AcDbBlockReference
  2
D74
 10
3.039
 20
1.855
 30
0.0
  0
INSERT
  5
5DC
330
679
100
AcDbEntity
  8
GTS
100
AcDbBlockReference
  2
D74
 10
3.067
 20
2.407
 30
0.0
  0
INSERT
  5
5DD
330
679
100
AcDbEntity
  8
GTS
100
AcDbBlockReference
  2
D74
 10
4.283
 20
2.403
 30
0.0
  0
INSERT
  5
5DE
330
679
100
AcDbEntity
  8
GTS
100
AcDbBlockReference
  2
D74
 10
4.283
 20
2.227
 30
0.0
  0
INSERT
  5
5DF
330
679
100
AcDbEntity
  8
GTS
100
AcDbBlockReference
  2
D74
 10
3.043
 20
1.691
 30
0.0
  0
INSERT
  5
5E0
330
679
100
AcDbEntity
  8
GTS
100
AcDbBlockReference
  2
D74
 10
3.519
 20
1.895
 30
0.0
  0
INSERT
  5
5E1
330
679
100
AcDbEntity
  8
GTS
100
AcDbBlockReference
  2
D74
 10
3.095
 20
1.683
 30
0.0
  0
INSERT
  5
5E2
330
679
100
AcDbEntity
  8
GTS
100
AcDbBlockReference
  2
D74
 10
3.479
 20
1.739
 30
0.0
  0
INSERT
  5
5E3
330
679
100
AcDbEntity
  8
GTS
100
AcDbBlockReference
  2
D74
 10
3.543
 20
1.987
 30
0.0
  0
INSERT
  5
5E4
330
679
100
AcDbEntity
  8
GTS
100
AcDbBlockReference
  2
D74
 10
3.223
 20
1.995
 30
0.0
  0
INSERT
  5
5E5
330
679
100
AcDbEntity
  8
GTS
100
AcDbBlockReference
  2
D74
 10
3.043
 20
1.627
 30
0.0
  0
INSERT
  5
5E6
330
679
100
AcDbEntity
  8
GTS
100
AcDbBlockReference
  2
D74
 10
4.403
 20
1.903
 30
0.0
  0
INSERT
  5
5E7
330
679
100
AcDbEntity
  8
GTS
100
AcDbBlockReference
  2
D74
 10
3.603
 20
1.847
 30
0.0
  0
INSERT
  5
5E8
330
679
100
AcDbEntity
  8
GTS
100
AcDbBlockReference
  2
D74
 10
3.095
 20
1.643
 30
0.0
  0
INSERT
  5
5E9
330
679
100
AcDbEntity
  8
GTS
100
AcDbBlockReference
  2
D74
 10
3.339
 20
1.615
 30
0.0
  0
INSERT
  5
5EA
330
679
100
AcDbEntity
  8
GTS
100
AcDbBlockReference
  2
D74
 10
3.055
 20
1.571
 30
0.0
  0
INSERT
  5
5EB
330
679
100
AcDbEntity
  8
GTS
100
AcDbBlockReference
  2
D74
 10
3.267
 20
1.571
 30
0.0
  0
INSERT
  5
5EC
330
679
100
AcDbEntity
  8
GTS
100
AcDbBlockReference
  2
D74
 10
4.403
 20
1.787
 30
0.0
  0
INSERT
  5
5ED
330
679
100
AcDbEntity
  8
GTS
100
AcDbBlockReference
  2
D74
 10
3.095
 20
1.599
 30
0.0
  0
INSERT
  5
5EE
330
679
100
AcDbEntity
  8
GTS
100
AcDbBlockReference
  2
D74
 10
3.297
 20
1.599
 30
0.0
  0
INSERT
  5
5EF
330
679
100
AcDbEntity
  8
GTS
100
AcDbBlockReference
  2
D74
 10
3.105
 20
1.537
 30
0.0
  0
INSERT
  5
5F0
330
679
100
AcDbEntity
  8
GTS
100
AcDbBlockReference
  2
D74
 10
3.227
 20
1.551
 30
0.0
  0
INSERT
  5
5F1
330
679
100
AcDbEntity
  8
GTS
100
AcDbBlockReference
  2
D74
 10
3.103
 20
1.495
 30
0.0
  0
INSERT
  5
5F2
330
679
100
AcDbEntity
  8
GTS
100
AcDbBlockReference
  2
D74
 10
3.227
 20
1.511
 30
0.0
  0
INSERT
  5
5F3
330
679
100
AcDbEntity
  8
GTS
100
AcDbBlockReference
  2
D74
 10
2.379
 20
1.439
 30
0.0
  0
INSERT
  5
5F4
330
679
100
AcDbEntity
  8
GTS
100
AcDbBlockReference
  2
D74
 10
2.391
 20
1.851
 30
0.0
  0
INSERT
  5
5F5
330
679
100
AcDbEntity
  8
GTS
100
AcDbBlockReference
  2
D74
 10
3.067
 20
2.367
 30
0.0
  0
INSERT
  5
5F6
330
679
100
AcDbEntity
  8
GTS
100
AcDbBlockReference
  2
D74
 10
4.167
 20
2.407
 30
0.0
  0
INSERT
  5
5F7
330
679
100
AcDbEntity
  8
GTS
100
AcDbBlockReference
  2
D74
 10
2.999
 20
1.871
 30
0.0
  0
INSERT
  5
5F8
330
679
100
AcDbEntity
  8
GTS
100
AcDbBlockReference
  2
D74
 10
4.191
 20
2.207
 30
0.0
  0
INSERT
  5
5F9
330
679
100
AcDbEntity
  8
GTS
100
AcDbBlockReference
  2
D74
 10
2.887
 20
1.463
 30
0.0
  0
INSERT
  5
5FA
330
679
100
AcDbEntity
  8
GTS
100
AcDbBlockReference
  2
D74
 10
3.303
 20
1.395
 30
0.0
  0
INSERT
  5
5FB
330
679
100
AcDbEntity
  8
GTS
100
AcDbBlockReference
  2
D74
 10
2.923
 20
1.399
 30
0.0
  0
INSERT
  5
5FC
330
679
100
AcDbEntity
  8
GTS
100
AcDbBlockReference
  2
D74
 10
3.143
 20
1.219
 30
0.0
  0
INSERT
  5
5FD
330
679
100
AcDbEntity
  8
GTS
100
AcDbBlockReference
  2
D74
 10
2.845
 20
1.463
 30
0.0
  0
INSERT
  5
5FE
330
679
100
AcDbEntity
  8
GTS
100
AcDbBlockReference
  2
D74
 10
3.271
 20
1.339
 30
0.0
  0
INSERT
  5
5FF
330
679
100
AcDbEntity
  8
GTS
100
AcDbBlockReference
  2
D74
 10
2.863
 20
1.403
 30
0.0
  0
INSERT
  5
600
330
679
100
AcDbEntity
  8
GTS
100
AcDbBlockReference
  2
D74
 10
3.335
 20
1.323
 30
0.0
  0
INSERT
  5
601
330
679
100
AcDbEntity
  8
GTS
100
AcDbBlockReference
  2
D74
 10
2.803
 20
1.463
 30
0.0
  0
INSERT
  5
602
330
679
100
AcDbEntity
  8
GTS
100
AcDbBlockReference
  2
D74
 10
3.375
 20
1.307
 30
0.0
  0
INSERT
  5
603
330
679
100
AcDbEntity
  8
GTS
100
AcDbBlockReference
  2
D74
 10
2.847
 20
1.275
 30
0.0
  0
INSERT
  5
604
330
679
100
AcDbEntity
  8
GTS
100
AcDbBlockReference
  2
D74
 10
2.891
 20
1.183
 30
0.0
  0
INSERT
  5
605
330
679
100
AcDbEntity
  8
GTS
100
AcDbBlockReference
  2
D74
 10
2.807
 20
1.407
 30
0.0
  0
INSERT
  5
606
330
679
100
AcDbEntity
  8
GTS
100
AcDbBlockReference
  2
D74
 10
2.851
 20
1.183
 30
0.0
  0
INSERT
  5
607
330
679
100
AcDbEntity
  8
GTS
100
AcDbBlockReference
  2
D74
 10
2.851
 20
1.143
 30
0.0
  0
INSERT
  5
608
330
679
100
AcDbEntity
  8
GTS
100
AcDbBlockReference
  2
D74
 10
2.759
 20
1.463
 30
0.0
  0
INSERT
  5
609
330
679
100
AcDbEntity
  8
GTS
100
AcDbBlockReference
  2
D74
 10
3.211
 20
2.099
 30
0.0
  0
INSERT
  5
60A
330
679
100
AcDbEntity
  8
GTS
100
AcDbBlockReference
  2
D74
 10
3.031
 20
1.991
 30
0.0
  0
INSERT
  5
60B
330
679
100
AcDbEntity
  8
GTS
100
AcDbBlockReference
  2
D74
 10
2.819
 20
1.947
 30
0.0
  0
INSERT
  5
60C
330
679
100
AcDbEntity
  8
GTS
100
AcDbBlockReference
  2
D74
 10
3.083
 20
1.939
 30
0.0
  0
INSERT
  5
60D
330
679
100
AcDbEntity
  8
GTS
100
AcDbBlockReference
  2
D74
 10
3.027
 20
2.655
 30
0.0
  0
INSERT
  5
60E
330
679
100
AcDbEntity
  8
GTS
100
AcDbBlockReference
  2
D74
 10
2.583
 20
1.923
 30
0.0
  0
INSERT
  5
60F
330
679
100
AcDbEntity
  8
GTS
100
AcDbBlockReference
  2
D74
 10
2.483
 20
1.911
 30
0.0
  0
INSERT
  5
610
330
679
100
AcDbEntity
  8
GTS
100
AcDbBlockReference
  2
D74
 10
2.431
 20
1.875
 30
0.0
  0
INSERT
  5
611
330
679
100
AcDbEntity
  8
GTS
100
AcDbBlockReference
  2
D74
 10
2.699
 20
2.255
 30
0.0
  0
INSERT
  5
612
330
679
100
AcDbEntity
  8
GTS
100
AcDbBlockReference
  2
D74
 10
2.715
 20
2.507
 30
0.0
  0
INSERT
  5
613
330
679
100
AcDbEntity
  8
GTS
100
AcDbBlockReference
  2
D74
 10
2.355
 20
2.515
 30
0.0
  0
INSERT
  5
614
330
679
100
AcDbEntity
  8
GTS
100
AcDbBlockReference
  2
D74
 10
2.695
 20
2.123
 30
0.0
  0
INSERT
  5
615
330
679
100
AcDbEntity
  8
GTS
100
AcDbBlockReference
  2
D74
 10
2.667
 20
2.679
 30
0.0
  0
INSERT
  5
616
330
679
100
AcDbEntity
  8
GTS
100
AcDbBlockReference
  2
D74
 10
1.703
 20
1.851
 30
0.0
  0
INSERT
  5
617
330
679
100
AcDbEntity
  8
GTS
100
AcDbBlockReference
  2
D74
 10
2.003
 20
1.467
 30
0.0
  0
INSERT
  5
618
330
679
100
AcDbEntity
  8
GTS
100
AcDbBlockReference
  2
D74
 10
1.691
 20
1.623
 30
0.0
  0
INSERT
  5
619
330
679
100
AcDbEntity
  8
GTS
100
AcDbBlockReference
  2
D74
 10
2.723
 20
2.091
 30
0.0
  0
INSERT
  5
61A
330
679
100
AcDbEntity
  8
GTS
100
AcDbBlockReference
  2
D74
 10
2.739
 20
2.623
 30
0.0
  0
INSERT
  5
61B
330
679
100
AcDbEntity
  8
GTS
100
AcDbBlockReference
  2
D74
 10
2.755
 20
2.251
 30
0.0
  0
INSERT
  5
61C
330
679
100
AcDbEntity
  8
GTS
100
AcDbBlockReference
  2
D74
 10
2.779
 20
2.575
 30
0.0
  0
INSERT
  5
61D
330
679
100
AcDbEntity
  8
GTS
100
AcDbBlockReference
  2
D74
 10
3.123
 20
2.263
 30
0.0
  0
INSERT
  5
61E
330
679
100
AcDbEntity
  8
GTS
100
AcDbBlockReference
  2
D74
 10
3.587
 20
2.615
 30
0.0
  0
INSERT
  5
61F
330
679
100
AcDbEntity
  8
GTS
100
AcDbBlockReference
  2
D74
 10
3.195
 20
2.251
 30
0.0
  0
INSERT
  5
620
330
679
100
AcDbEntity
  8
GTS
100
AcDbBlockReference
  2
D74
 10
3.667
 20
2.583
 30
0.0
  0
INSERT
  5
621
330
679
100
AcDbEntity
  8
GTS
100
AcDbBlockReference
  2
D74
 10
2.967
 20
1.287
 30
0.0
  0
INSERT
  5
622
330
679
100
AcDbEntity
  8
GTS
100
AcDbBlockReference
  2
D74
 10
2.067
 20
1.347
 30
0.0
  0
INSERT
  5
623
330
679
100
AcDbEntity
  8
GTS
100
AcDbBlockReference
  2
D74
 10
2.575
 20
1.463
 30
0.0
  0
INSERT
  5
624
330
679
100
AcDbEntity
  8
GTS
100
AcDbBlockReference
  2
D74
 10
1.075
 20
1.867
 30
0.0
  0
INSERT
  5
625
330
679
100
AcDbEntity
  8
GTS
100
AcDbBlockReference
  2
D74
 10
1.551
 20
1.351
 30
0.0
  0
INSERT
  5
626
330
679
100
AcDbEntity
  8
GTS
100
AcDbBlockReference
  2
D74
 10
3.255
 20
2.027
 30
0.0
  0
INSERT
  5
627
330
679
100
AcDbEntity
  8
GTS
100
AcDbBlockReference
  2
D74
 10
3.079
 20
1.843
 30
0.0
  0
INSERT
  5
628
330
679
100
AcDbEntity
  8
GTS
100
AcDbBlockReference
  2
D74
 10
2.657
 20
1.823
 30
0.0
  0
INSERT
  5
629
330
679
100
AcDbEntity
  8
GTS
100
AcDbBlockReference
  2
D74
 10
2.657
 20
1.463
 30
0.0
  0
INSERT
  5
62A
330
679
100
AcDbEntity
  8
GTS
100
AcDbBlockReference
  2
D74
 10
4.191
 20
2.251
 30
0.0
  0
INSERT
  5
62B
330
679
100
AcDbEntity
  8
GTS
100
AcDbBlockReference
  2
D74
 10
2.079
 20
1.431
 30
0.0
  0
INSERT
  5
62C
330
679
100
AcDbEntity
  8
GTS
100
AcDbBlockReference
  2
D74
 10
2.617
 20
1.463
 30
0.0
  0
INSERT
  5
62D
330
679
100
AcDbEntity
  8
GTS
100
AcDbBlockReference
  2
D74
 10
2.617
 20
1.691
 30
0.0
  0
INSERT
  5
62E
330
679
100
AcDbEntity
  8
GTS
100
AcDbBlockReference
  2
D74
 10
2.999
 20
1.691
 30
0.0
  0
INSERT
  5
62F
330
679
100
AcDbEntity
  8
GTS
100
AcDbBlockReference
  2
D74
 10
3.547
 20
2.039
 30
0.0
  0
INSERT
  5
630
330
679
100
AcDbEntity
  8
GTS
100
AcDbBlockReference
  2
D74
 10
3.935
 20
2.175
 30
0.0
  0
INSERT
  5
631
330
679
100
AcDbEntity
  8
GTS
100
AcDbBlockReference
  2
D74
 10
2.887
 20
2.107
 30
0.0
  0
INSERT
  5
632
330
679
100
AcDbEntity
  8
GTS
100
AcDbBlockReference
  2
D74
 10
2.891
 20
2.647
 30
0.0
  0
INSERT
  5
633
330
679
100
AcDbEntity
  8
GTS
100
AcDbBlockReference
  2
D74
 10
1.635
 20
2.651
 30
0.0
  0
INSERT
  5
634
330
679
100
AcDbEntity
  8
GTS
100
AcDbBlockReference
  2
D74
 10
3.663
 20
1.875
 30
0.0
  0
INSERT
  5
635
330
679
100
AcDbEntity
  8
GTS
100
AcDbBlockReference
  2
D74
 10
3.631
 20
1.599
 30
0.0
  0
INSERT
  5
636
330
679
100
AcDbEntity
  8
GTS
100
AcDbBlockReference
  2
D74
 10
2.335
 20
2.603
 30
0.0
  0
INSERT
  5
637
330
679
100
AcDbEntity
  8
GTS
100
AcDbBlockReference
  2
D74
 10
2.631
 20
2.635
 30
0.0
  0
INSERT
  5
638
330
679
100
AcDbEntity
  8
GTS
100
AcDbBlockReference
  2
D74
 10
2.515
 20
1.479
 30
0.0
  0
INSERT
  5
639
330
679
100
AcDbEntity
  8
GTS
100
AcDbBlockReference
  2
D74
 10
2.915
 20
1.963
 30
0.0
  0
INSERT
  5
63A
330
679
100
AcDbEntity
  8
GTS
100
AcDbBlockReference
  2
D74
 10
3.031
 20
1.483
 30
0.0
  0
INSERT
  5
63B
330
679
100
AcDbEntity
  8
GTS
100
AcDbBlockReference
  2
D74
 10
3.039
 20
2.119
 30
0.0
  0
INSERT
  5
63C
330
679
100
AcDbEntity
  8
GTS
100
AcDbBlockReference
  2
D74
 10
3.067
 20
2.655
 30
0.0
  0
INSERT
  5
63D
330
679
100
AcDbEntity
  8
GTS
100
AcDbBlockReference
  2
D74
 10
1.323
 20
1.351
 30
0.0
  0
INSERT
  5
63E
330
679
100
AcDbEntity
  8
GTS
100
AcDbBlockReference
  2
D74
 10
1.291
 20
2.655
 30
0.0
  0
INSERT
  5
63F
330
679
100
AcDbEntity
  8
GTS
100
AcDbBlockReference
  2
D74
 10
2.751
 20
2.123
 30
0.0
  0
INSERT
  5
640
330
679
100
AcDbEntity
  8
GTS
100
AcDbBlockReference
  2
D74
 10
2.779
 20
2.615
 30
0.0
  0
INSERT
  5
641
330
679
100
AcDbEntity
  8
GTS
100
AcDbBlockReference
  2
D74
 10
2.951
 20
2.119
 30
0.0
  0
INSERT
  5
642
330
679
100
AcDbEntity
  8
GTS
100
AcDbBlockReference
  2
D74
 10
2.963
 20
2.591
 30
0.0
  0
INSERT
  5
643
330
679
100
AcDbEntity
  8
GTS
100
AcDbBlockReference
  2
D74
 10
3.195
 20
2.291
 30
0.0
  0
INSERT
  5
644
330
679
100
AcDbEntity
  8
GTS
100
AcDbBlockReference
  2
D74
 10
3.627
 20
2.599
 30
0.0
  0
INSERT
  5
645
330
679
100
AcDbEntity
  8
GTS
100
AcDbBlockReference
  2
D74
 10
1.123
 20
1.947
 30
0.0
  0
INSERT
  5
646
330
679
100
AcDbEntity
  8
GTS
100
AcDbBlockReference
  2
D74
 10
2.015
 20
1.147
 30
0.0
  0
INSERT
  5
647
330
679
100
AcDbEntity
  8
GTS
100
AcDbBlockReference
  2
D74
 10
2.399
 20
1.787
 30
0.0
  0
INSERT
  5
648
330
679
100
AcDbEntity
  8
GTS
100
AcDbBlockReference
  2
D74
 10
2.251
 20
2.515
 30
0.0
  0
INSERT
  5
649
330
679
100
AcDbEntity
  8
GTS
100
AcDbBlockReference
  2
D74
 10
1.063
 20
2.167
 30
0.0
  0
INSERT
  5
64A
330
679
100
AcDbEntity
  8
GTS
100
AcDbBlockReference
  2
D74
 10
1.035
 20
2.507
 30
0.0
  0
INSERT
  5
64B
330
679
100
AcDbEntity
  8
GTS
100
AcDbBlockReference
  2
D74
 10
2.015
 20
1.739
 30
0.0
  0
INSERT
  5
64C
330
679
100
AcDbEntity
  8
GTS
100
AcDbBlockReference
  2
D74
 10
2.479
 20
1.763
 30
0.0
  0
INSERT
  5
64D
330
679
100
AcDbEntity
  8
GTS
100
AcDbBlockReference
  2
D74
 10
2.251
 20
1.435
 30
0.0
  0
INSERT
  5
64E
330
679
100
AcDbEntity
  8
GTS
100
AcDbBlockReference
  2
D74
 10
2.119
 20
1.403
 30
0.0
  0
INSERT
  5
64F
330
679
100
AcDbEntity
  8
GTS
100
AcDbBlockReference
  2
D74
 10
1.667
 20
1.735
 30
0.0
  0
INSERT
  5
650
330
679
100
AcDbEntity
  8
GTS
100
AcDbBlockReference
  2
D74
 10
2.359
 20
2.043
 30
0.0
  0
INSERT
  5
651
330
679
100
AcDbEntity
  8
GTS
100
AcDbBlockReference
  2
D74
 10
2.319
 20
2.217
 30
0.0
  0
INSERT
  5
652
330
679
100
AcDbEntity
  8
GTS
100
AcDbBlockReference
  2
D74
 10
2.359
 20
1.115
 30
0.0
  0
INSERT
  5
653
330
679
100
AcDbEntity
  8
GTS
100
AcDbBlockReference
  2
D74
 10
2.359
 20
1.33
 30
0.0
  0
INSERT
  5
654
330
679
100
AcDbEntity
  8
GTS
100
AcDbBlockReference
  2
D74
 10
2.911
 20
2.243
 30
0.0
  0
INSERT
  5
655
330
679
100
AcDbEntity
  8
GTS
100
AcDbBlockReference
  2
D74
 10
2.971
 20
1.491
 30
0.0
  0
INSERT
  5
656
330
679
100
AcDbEntity
  8
GTS
100
AcDbBlockReference
  2
D74
 10
2.199
 20
2.061
 30
0.0
  0
INSERT
  5
657
330
679
100
AcDbEntity
  8
GTS
100
AcDbBlockReference
  2
D74
 10
2.179
 20
2.241
 30
0.0
  0
INSERT
  5
658
330
679
100
AcDbEntity
  8
GTS
100
AcDbBlockReference
  2
D74
 10
1.903
 20
1.887
 30
0.0
  0
INSERT
  5
659
330
679
100
AcDbEntity
  8
GTS
100
AcDbBlockReference
  2
D74
 10
2.243
 20
2.079
 30
0.0
  0
INSERT
  5
65A
330
679
100
AcDbEntity
  8
GTS
100
AcDbBlockReference
  2
D74
 10
2.191
 20
2.507
 30
0.0
  0
INSERT
  5
7FB
330
679
100
AcDbEntity
  8
GTS
100
AcDbBlockReference
  2
D75
 10
2.031
 20
1.539
 30
0.0
  0
ENDSEC
  0
SECTION
  2
OBJECTS
  0
DICTIONARY
  5
667
330
0
100
AcDbDictionary
  3
ACAD_GROUP
350
668
  3
ACAD_LAYOUT
350
674
  3
ACAD_MATERIAL
350
69D
  3
ACAD_MLEADERSTYLE
350
6C5
  3
ACAD_MLINESTYLE
350
671
  3
ACAD_PLOTSETTINGS
350
673
  3
ACAD_SCALELIST
350
6A1
  3
ACAD_VISUALSTYLE
350
684
  3
ACDBVARIABLEDICTIONARY
350
7FC
  3
QCAD_OBJECTS
350
6C9
1001
ACAD
1000
TREAT_AS_HARD
1070
     0
  0
DICTIONARY
  5
668
102
{ACAD_REACTORS
330
667
102
}
330
667
100
AcDbDictionary
1001
ACAD
1000
TREAT_AS_HARD
1070
     0
  0
DICTIONARY
  5
674
102
{ACAD_REACTORS
330
667
102
}
330
667
100
AcDbDictionary
1001
ACAD
1000
TREAT_AS_HARD
1070
     0
  0
DICTIONARY
  5
69D
102
{ACAD_REACTORS
330
667
102
}
330
667
100
AcDbDictionary
  3
BYBLOCK
350
69F
  3
BYLAYER
350
69E
  3
GLOBAL
350
6A0
1001
ACAD
1000
TREAT_AS_HARD
1070
     0
  0
DICTIONARY
  5
6C5
102
{ACAD_REACTORS
330
667
102
}
330
667
100
AcDbDictionary
  3
STANDARD
350
6C6
1001
ACAD
1000
TREAT_AS_HARD
1070
     0
  0
DICTIONARY
  5
671
102
{ACAD_REACTORS
330
667
102
}
330
667
100
AcDbDictionary
  3
STANDARD
350
672
1001
ACAD
1000
TREAT_AS_HARD
1070
     0
  0
DICTIONARY
  5
673
102
{ACAD_REACTORS
330
667
102
}
330
667
100
AcDbDictionary
1001
ACAD
1000
TREAT_AS_HARD
1070
     0
  0
DICTIONARY
  5
6A1
102
{ACAD_REACTORS
330
667
102
}
330
667
100
AcDbDictionary
  3
A0
350
6A2
  3
A1
350
6A3
  3
A2
350
6A4
  3
A3
350
6A5
  3
A4
350
6A6
  3
A5
350
6A7
  3
A6
350
6A8
  3
A7
350
6A9
  3
A8
350
6AA
  3
A9
350
6AB
  3
B0
350
6AC
  3
B1
350
6AD
  3
B2
350
6AE
  3
B3
350
6AF
  3
B4
350
6B0
  3
B5
350
6B1
  3
B6
350
6B2
  3
B7
350
6B3
  3
B8
350
6B4
  3
B9
350
6B5
  3
C0
350
6B6
  3
C1
350
6B7
  3
C2
350
6B8
  3
C3
350
6B9
  3
C4
350
6BA
  3
C5
350
6BB
  3
C6
350
6BC
  3
C7
350
6BD
  3
C8
350
6BE
  3
C9
350
6BF
  3
D0
350
6C0
  3
D1
350
6C1
  3
D2
350
6C2
1001
ACAD
1000
TREAT_AS_HARD
1070
     0
  0
DICTIONARY
  5
684
102
{ACAD_REACTORS
330
667
102
}
330
667
100
AcDbDictionary
  3
2DWIREFRAME
350
689
  3
BASIC
350
68C
  3
BRIGHTEN
350
690
  3
COLORCHANGE
350
694
  3
CONCEPTUAL
350
68E
  3
DIM
350
68F
  3
EDGECOLOROFF
350
697
  3
FACEPATTERN
350
693
  3
FLAT
350
685
  3
FLATWITHEDGES
350
686
  3
GOURAUD
350
687
  3
GOURAUDWITHEDGES
350
688
  3
HIDDEN
350
68B
  3
JITTEROFF
350
695
  3
LINEPATTERN
350
692
  3
OVERHANGOFF
350
696
  3
REALISTIC
350
68D
  3
SHADED
350
69C
  3
SHADED_WITH_EDGES
350
69B
  3
SHADES_OF_GRAY
350
698
  3
SKETCHY
350
699
  3
THICKEN
350
691
  3
WIREFRAME
350
68A
  3
X-RAY
350
69A
1001
ACAD
1000
TREAT_AS_HARD
1070
     0
  0
DICTIONARY
  5
7FC
102
{ACAD_REACTORS
330
667
102
}
330
667
100
AcDbDictionary
  3
CANNOSCALE
350
903
  3
CMLEADERSTYLE
350
7FE
  3
CTABLESTYLE
350
7FD
  3
DIMASSOC
350
801
  3
HIDETEXT
350
802
  3
MSLTSCALE
350
904
1001
ACAD
1000
TREAT_AS_HARD
1070
     0
  0
DICTIONARY
  5
6C9
102
{ACAD_REACTORS
330
667
102
}
330
667
100
AcDbDictionary
  3
COLORSETTINGS/BACKGROUNDCOLOR
350
6CB
  3
COLORSETTINGS/COLORMODE
350
6CC
  3
GRID/DISPLAYGRID00
350
6CD
  3
GRID/DISPLAYGRID01
350
6CE
  3
GRID/DISPLAYGRID02
350
6CF
  3
GRID/DISPLAYGRID03
350
6D0
  3
GRID/GRIDSPACINGX00
350
6D1
  3
GRID/GRIDSPACINGX01
350
6D2
  3
GRID/GRIDSPACINGX02
350
6D3
  3
GRID/GRIDSPACINGX03
350
6D4
  3
GRID/GRIDSPACINGY00
350
6D5
  3
GRID/GRIDSPACINGY01
350
6D6
  3
GRID/GRIDSPACINGY02
350
6D7
  3
GRID/GRIDSPACINGY03
350
6D8
  3
GRID/ISOMETRICGRID00
350
6D9
  3
GRID/ISOMETRICGRID01
350
6DA
  3
GRID/ISOMETRICGRID02
350
6DB
  3
GRID/ISOMETRICGRID03
350
6DC
  3
GRID/ISOMETRICPROJECTION00
350
6DD
  3
GRID/ISOMETRICPROJECTION01
350
6DE
  3
GRID/ISOMETRICPROJECTION02
350
6DF
  3
GRID/ISOMETRICPROJECTION03
350
6E0
  3
GRID/METAGRIDSPACINGX00
350
6E1
  3
GRID/METAGRIDSPACINGX01
350
6E2
  3
GRID/METAGRIDSPACINGX02
350
6E3
  3
GRID/METAGRIDSPACINGX03
350
6E4
  3
GRID/METAGRIDSPACINGY00
350
6E5
  3
GRID/METAGRIDSPACINGY01
350
6E6
  3
GRID/METAGRIDSPACINGY02
350
6E7
  3
GRID/METAGRIDSPACINGY03
350
6E8
  3
MULTIPAGESETTINGS/COLUMNS
350
6E9
  3
MULTIPAGESETTINGS/GLUEMAR0
350
6EB
  3
MULTIPAGESETTINGS/GLUEMAR1
350
6EC
  3
MULTIPAGESETTINGS/GLUEMAR2
350
6ED
  3
MULTIPAGESETTINGS/GLUEMARG
350
6EA
  3
MULTIPAGESETTINGS/PRINTCRO
350
6EE
  3
MULTIPAGESETTINGS/ROWS
350
6EF
  3
PAGESETTINGS/OFFSETX
350
6F0
  3
PAGESETTINGS/OFFSETY
350
6F1
  3
PAGESETTINGS/PAGEORIENTATION
350
6F2
  3
PAGESETTINGS/PAPERHEIGHT
350
6F3
  3
PAGESETTINGS/PAPERWIDTH
350
6F4
  3
PAGESETTINGS/SCALE
350
6F5
  3
PAGESETTINGS/SHOWPAPERBORDERS
350
6F6
  3
QCADVERSION
350
6CA
  3
UNITSETTINGS/PAPERUNIT
350
6F7
1001
ACAD
1000
TREAT_AS_HARD
1070
     0
  0
MATERIAL
  5
69F
102
{ACAD_REACTORS
330
69D
102
}
102
{ACAD_XDICTIONARY
360
907
102
}
330
69D
100
AcDbMaterial
  1
BYBLOCK
  0
MATERIAL
  5
69E
102
{ACAD_REACTORS
330
69D
102
}
102
{ACAD_XDICTIONARY
360
905
102
}
330
69D
100
AcDbMaterial
  1
BYLAYER
  0
MATERIAL
  5
6A0
102
{ACAD_REACTORS
330
69D
102
}
102
{ACAD_XDICTIONARY
360
909
102
}
330
69D
100
AcDbMaterial
  1
GLOBAL
  0
ACAD_PROXY_OBJECT
  5
6C6
102
{ACAD_REACTORS
330
6C5
102
}
330
6C5
100
AcDbZombieObject
 90
      499
 91
      505
 93
      610
310
40901902A4063FBFFFFFE056BD1B81E855B9FC0AD7A3703D0AD73F4214DD185B99185C9900AD7A3703D0AC73F90141901A02B5E8DC0F42B1CFC02B5E8DC0F42B1CFE5764000000000000300FC0
340
66E
340
0
340
66C
340
0
 94
        0
1001
ACAD_MLEADERVER
1070
     2
  0
MLINESTYLE
  5
672
102
{ACAD_REACTORS
330
671
102
}
330
671
100
AcDbMlineStyle
  2
Standard
 70
     0
  3

 62
   256
 51
90.0
 52
90.0
 71
     2
 49
0.5
 62
   256
  6
BYLAYER
 49
-0.5
 62
   256
  6
BYLAYER
  0
ACAD_PROXY_OBJECT
  5
6A2
102
{ACAD_REACTORS
330
6A1
102
}
330
6A1
100
AcDbZombieObject
 90
      499
 91
      503
 93
       41
310
903313A31580
  0
ACAD_PROXY_OBJECT
  5
6A3
102
{ACAD_REACTORS
330
6A1
102
}
330
6A1
100
AcDbZombieObject
 90
      499
 91
      503
 93
      105
310
903313A324000000000000004000
  0
ACAD_PROXY_OBJECT
  5
6A4
102
{ACAD_REACTORS
330
6A1
102
}
330
6A1
100
AcDbZombieObject
 90
      499
 91
      503
 93
      105
310
903313A344000000000000104000
  0
ACAD_PROXY_OBJECT
  5
6A5
102
{ACAD_REACTORS
330
6A1
102
}
330
6A1
100
AcDbZombieObject
 90
      499
 91
      503
 93
      105
310
903313A354000000000000144000
  0
ACAD_PROXY_OBJECT
  5
6A6
102
{ACAD_REACTORS
330
6A1
102
}
330
6A1
100
AcDbZombieObject
 90
      499
 91
      503
 93
      105
310
903313A384000000000000204000
  0
ACAD_PROXY_OBJECT
  5
6A7
102
{ACAD_REACTORS
330
6A1
102
}
330
6A1
100
AcDbZombieObject
 90
      499
 91
      503
 93
      113
310
904313A31304000000000000244000
  0
ACAD_PROXY_OBJECT
  5
6A8
102
{ACAD_REACTORS
330
6A1
102
}
330
6A1
100
AcDbZombieObject
 90
      499
 91
      503
 93
      113
310
904313A31364000000000000304000
  0
ACAD_PROXY_OBJECT
  5
6A9
102
{ACAD_REACTORS
330
6A1
102
}
330
6A1
100
AcDbZombieObject
 90
      499
 91
      503
 93
      113
310
904313A32304000000000000344000
  0
ACAD_PROXY_OBJECT
  5
6AA
102
{ACAD_REACTORS
330
6A1
102
}
330
6A1
100
AcDbZombieObject
 90
      499
 91
      503
 93
      113
310
904313A333040000000000003E4000
  0
ACAD_PROXY_OBJECT
  5
6AB
102
{ACAD_REACTORS
330
6A1
102
}
330
6A1
100
AcDbZombieObject
 90
      499
 91
      503
 93
      113
310
904313A34304000000000000444000
  0
ACAD_PROXY_OBJECT
  5
6AC
102
{ACAD_REACTORS
330
6A1
102
}
330
6A1
100
AcDbZombieObject
 90
      499
 91
      503
 93
      113
310
904313A35304000000000000494000
  0
ACAD_PROXY_OBJECT
  5
6AD
102
{ACAD_REACTORS
330
6A1
102
}
330
6A1
100
AcDbZombieObject
 90
      499
 91
      503
 93
      121
310
905313A3130304000000000000594000
  0
ACAD_PROXY_OBJECT
  5
6AE
102
{ACAD_REACTORS
330
6A1
102
}
330
6A1
100
AcDbZombieObject
 90
      499
 91
      503
 93
      105
310
903323A310000000000000010100
  0
ACAD_PROXY_OBJECT
  5
6AF
102
{ACAD_REACTORS
330
6A1
102
}
330
6A1
100
AcDbZombieObject
 90
      499
 91
      503
 93
      105
310
903343A310000000000000410100
  0
ACAD_PROXY_OBJECT
  5
6B0
102
{ACAD_REACTORS
330
6A1
102
}
330
6A1
100
AcDbZombieObject
 90
      499
 91
      503
 93
      105
310
903383A310000000000000810100
  0
ACAD_PROXY_OBJECT
  5
6B1
102
{ACAD_REACTORS
330
6A1
102
}
330
6A1
100
AcDbZombieObject
 90
      499
 91
      503
 93
      113
310
90431303A310000000000000910100
  0
ACAD_PROXY_OBJECT
  5
6B2
102
{ACAD_REACTORS
330
6A1
102
}
330
6A1
100
AcDbZombieObject
 90
      499
 91
      503
 93
      121
310
9053130303A310000000000001650100
  0
ACAD_PROXY_OBJECT
  5
6B3
102
{ACAD_REACTORS
330
6A1
102
}
330
6A1
100
AcDbZombieObject
 90
      499
 91
      503
 93
      257
310
90E312F31323822203D2031272D3022000000000000200FC000000000000284000
  0
ACAD_PROXY_OBJECT
  5
6B4
102
{ACAD_REACTORS
330
6A1
102
}
330
6A1
100
AcDbZombieObject
 90
      499
 91
      503
 93
      249
310
90D312F363422203D2031272D3022000000000000240FC000000000000284000
  0
ACAD_PROXY_OBJECT
  5
6B5
102
{ACAD_REACTORS
330
6A1
102
}
330
6A1
100
AcDbZombieObject
 90
      499
 91
      503
 93
      249
310
90D312F333222203D2031272D3022000000000000280FC000000000000284000
  0
ACAD_PROXY_OBJECT
  5
6B6
102
{ACAD_REACTORS
330
6A1
102
}
330
6A1
100
AcDbZombieObject
 90
      499
 91
      503
 93
      249
310
90D312F313622203D2031272D30220000000000002C0FC000000000000284000
  0
ACAD_PROXY_OBJECT
  5
6B7
102
{ACAD_REACTORS
330
6A1
102
}
330
6A1
100
AcDbZombieObject
 90
      499
 91
      503
 93
      249
310
90D332F333222203D2031272D30220000000000002E0FC000000000000284000
  0
ACAD_PROXY_OBJECT
  5
6B8
102
{ACAD_REACTORS
330
6A1
102
}
330
6A1
100
AcDbZombieObject
 90
      499
 91
      503
 93
      241
310
90C312F3822203D2031272D3022000000000000300FC000000000000284000
  0
ACAD_PROXY_OBJECT
  5
6B9
102
{ACAD_REACTORS
330
6A1
102
}
330
6A1
100
AcDbZombieObject
 90
      499
 91
      503
 93
      249
310
90D332F313622203D2031272D3022000000000000320FC000000000000284000
  0
ACAD_PROXY_OBJECT
  5
6BA
102
{ACAD_REACTORS
330
6A1
102
}
330
6A1
100
AcDbZombieObject
 90
      499
 91
      503
 93
      241
310
90C312F3422203D2031272D3022000000000000340FC000000000000284000
  0
ACAD_PROXY_OBJECT
  5
6BB
102
{ACAD_REACTORS
330
6A1
102
}
330
6A1
100
AcDbZombieObject
 90
      499
 91
      503
 93
      241
310
90C332F3822203D2031272D3022000000000000360FC000000000000284000
  0
ACAD_PROXY_OBJECT
  5
6BC
102
{ACAD_REACTORS
330
6A1
102
}
330
6A1
100
AcDbZombieObject
 90
      499
 91
      503
 93
      241
310
90C312F3222203D2031272D3022000000000000380FC000000000000284000
  0
ACAD_PROXY_OBJECT
  5
6BD
102
{ACAD_REACTORS
330
6A1
102
}
330
6A1
100
AcDbZombieObject
 90
      499
 91
      503
 93
      241
310
90C332F3422203D2031272D30220000000000003A0FC000000000000284000
  0
ACAD_PROXY_OBJECT
  5
6BE
102
{ACAD_REACTORS
330
6A1
102
}
330
6A1
100
AcDbZombieObject
 90
      499
 91
      503
 93
      161
310
90A3122203D2031272D30224000000000000284000
  0
ACAD_PROXY_OBJECT
  5
6BF
102
{ACAD_REACTORS
330
6A1
102
}
330
6A1
100
AcDbZombieObject
 90
      499
 91
      503
 93
      257
310
90E312D312F3222203D2031272D30220000000000003E0FC000000000000284000
  0
ACAD_PROXY_OBJECT
  5
6C0
102
{ACAD_REACTORS
330
6A1
102
}
330
6A1
100
AcDbZombieObject
 90
      499
 91
      503
 93
      225
310
90A3322203D2031272D302200000000000002100000000000000284000
  0
ACAD_PROXY_OBJECT
  5
6C1
102
{ACAD_REACTORS
330
6A1
102
}
330
6A1
100
AcDbZombieObject
 90
      499
 91
      503
 93
      225
310
90A3622203D2031272D302200000000000006100000000000000284000
  0
ACAD_PROXY_OBJECT
  5
6C2
102
{ACAD_REACTORS
330
6A1
102
}
330
6A1
100
AcDbZombieObject
 90
      499
 91
      503
 93
      249
310
90D31272D3022203D2031272D30220000000000000A100000000000000284000
  0
ACAD_PROXY_OBJECT
  5
689
102
{ACAD_REACTORS
330
684
102
}
330
684
100
AcDbZombieObject
 90
      499
 91
      501
 93
      436
310
42CC9915DA5C99599C985B595049028333333333333E33F0000000000000F90107901411070040501600405405064090741402480A0340
1001
ACAD
1000
AcDbSavedByObjectVersion
1070
     0
  0
ACAD_PROXY_OBJECT
  5
68C
102
{ACAD_REACTORS
330
684
102
}
330
684
100
AcDbZombieObject
 90
      499
 91
      501
 93
      388
310
4150985CDA58D07406404333333333333E33F0000000000000F90107A41107004050150841D405064090741402480A0350
1001
ACAD
1000
AcDbSavedByObjectVersion
1070
     0
  0
ACAD_PROXY_OBJECT
  5
690
102
{ACAD_REACTORS
330
684
102
}
330
684
100
AcDbZombieObject
 90
      499
 91
      501
 93
      428
310
42109C9A59DA1D195B90C409028333333333333E33F0000000000000F9010790141107004050150841D405064090741402480A029950
1001
ACAD
1000
AcDbSavedByObjectVersion
1070
     0
  0
ACAD_PROXY_OBJECT
  5
694
102
{ACAD_REACTORS
330
684
102
}
330
684
100
AcDbZombieObject
 90
      499
 91
      501
 93
      452
310
42D0DBDB1BDC90DA185B99D95104090240C333333333333E33F0000000000000F90108901411070040501508421405064090741402480A0350
1001
ACAD
1000
AcDbSavedByObjectVersion
1070
     0
  0
ACAD_PROXY_OBJECT
  5
68E
102
{ACAD_REACTORS
330
684
102
}
330
684
100
AcDbZombieObject
 90
      499
 91
      501
 93
      500
310
4290DBDB98D95C1D1D585B10940D028333333333333E33F0000000000000F90107902409070040501000000000018199010841D405064090740C02480A0340
1001
ACAD
1000
AcDbSavedByObjectVersion
1070
     0
  0
ACAD_PROXY_OBJECT
  5
68F
102
{ACAD_REACTORS
330
684
102
}
330
684
100
AcDbZombieObject
 90
      499
 91
      501
 93
      412
310
40D11A5B50B409028333333333333E33F0000000000000F9010790141107004050150841D405064090741402480A02677FFFFFD0
1001
ACAD
1000
AcDbSavedByObjectVersion
1070
     0
  0
ACAD_PROXY_OBJECT
  5
697
102
{ACAD_REACTORS
330
684
102
}
330
684
100
AcDbZombieObject
 90
      499
 91
      501
 93
      452
310
43115919D950DBDB1BDC93D999916409028333333333333E33F0000000000000F9010790141107004050150841D405064090741402480A0350
1001
ACAD
1000
AcDbSavedByObjectVersion
1070
     0
  0
ACAD_PROXY_OBJECT
  5
693
102
{ACAD_REACTORS
330
684
102
}
330
684
100
AcDbZombieObject
 90
      499
 91
      501
 93
      444
310
42D19858D95C185D1D195C9B90F409028333333333333E33F0000000000000F9010790141107004050150841D405064090741402480A0350
1001
ACAD
1000
AcDbSavedByObjectVersion
1070
     0
  0
ACAD_PROXY_OBJECT
  5
685
102
{ACAD_REACTORS
330
684
102
}
330
684
100
AcDbZombieObject
 90
      499
 91
      501
 93
      380
310
41119B185D240901404333333333333E33F0000000000000F9010740A907004050150841D405064090741402480A1B50
1001
ACAD
1000
AcDbSavedByObjectVersion
1070
     0
  0
ACAD_PROXY_OBJECT
  5
686
102
{ACAD_REACTORS
330
684
102
}
330
684
100
AcDbZombieObject
 90
      499
 91
      501
 93
      468
310
43519B185D15DA5D1A115919D95CD0140901404333333333333E33F0000000000000F90107409019070040501600405405064090741402480A1B50
1001
ACAD
1000
AcDbSavedByObjectVersion
1070
     0
  0
ACAD_PROXY_OBJECT
  5
687
102
{ACAD_REACTORS
330
684
102
}
330
684
100
AcDbZombieObject
 90
      499
 91
      501
 93
      404
310
41D1DBDD5C985D5910240902404333333333333E33F0000000000000F9010740A9070040501641D405064090741402480A1B50
1001
ACAD
1000
AcDbSavedByObjectVersion
1070
     0
  0
ACAD_PROXY_OBJECT
  5
688
102
{ACAD_REACTORS
330
684
102
}
330
684
100
AcDbZombieObject
 90
      499
 91
      501
 93
      492
310
4411DBDD5C985D5915DA5D1A115919D95CD0340902404333333333333E33F0000000000000F90107409019070040501600405405064090741402480A1B50
1001
ACAD
1000
AcDbSavedByObjectVersion
1070
     0
  0
ACAD_PROXY_OBJECT
  5
68B
102
{ACAD_REACTORS
330
684
102
}
330
684
100
AcDbZombieObject
 90
      499
 91
      501
 93
      476
310
41921A5919195B90640502408333333333333E33F0000000000000F901079024090700405020000000000001110200405405064090740C02480A0340
1001
ACAD
1000
AcDbSavedByObjectVersion
1070
     0
  0
ACAD_PROXY_OBJECT
  5
695
102
{ACAD_REACTORS
330
684
102
}
330
684
100
AcDbZombieObject
 90
      499
 91
      501
 93
      428
310
42529A5D1D195C93D999914409028333333333333E33F0000000000000F9010790141107004050150A41D405064090741402480A0350
1001
ACAD
1000
AcDbSavedByObjectVersion
1070
     0
  0
ACAD_PROXY_OBJECT
  5
692
102
{ACAD_REACTORS
330
684
102
}
330
684
100
AcDbZombieObject
 90
      499
 91
      501
 93
      444
310
42D31A5B995C185D1D195C9B90E409028333333333333E33F0000000000000F9010790141107004050750841D405064090741402483A0350
1001
ACAD
1000
AcDbSavedByObjectVersion
1070
     0
  0
ACAD_PROXY_OBJECT
  5
696
102
{ACAD_REACTORS
330
684
102
}
330
684
100
AcDbZombieObject
 90
      499
 91
      501
 93
      444
310
42D3DD995C9A185B99D3D999915409028333333333333E33F0000000000000F9010790141107004050150941D405064090741402480A0350
1001
ACAD
1000
AcDbSavedByObjectVersion
1070
     0
  0
ACAD_PROXY_OBJECT
  5
68D
102
{ACAD_REACTORS
330
684
102
}
330
684
100
AcDbZombieObject
 90
      499
 91
      501
 93
      428
310
425499585B1A5CDD1A58D08409038333333333333E33F0000000000000F9010740A907004050150800405405064090740C02480A1B40
1001
ACAD
1000
AcDbSavedByObjectVersion
1070
     0
  0
ACAD_PROXY_OBJECT
  5
69C
102
{ACAD_REACTORS
330
684
102
}
330
684
100
AcDbZombieObject
 90
      499
 91
      501
 93
      420
310
4194DA1859195911B40902404333333333333E33F0000000000000F9010740A41107004050150800405405064090840C02480A0B40
1001
ACAD
1000
AcDbSavedByObjectVersion
1070
     0
  0
ACAD_PROXY_OBJECT
  5
69B
102
{ACAD_REACTORS
330
684
102
}
330
684
100
AcDbZombieObject
 90
      499
 91
      501
 93
      516
310
4454DA18591959081DDA5D1A08195919D95CD1A40902404333333333333E33F0000000000000F901074090142907004050250800405405064090740C02480A0B40
1001
ACAD
1000
AcDbSavedByObjectVersion
1070
     0
  0
ACAD_PROXY_OBJECT
  5
698
102
{ACAD_REACTORS
330
684
102
}
330
684
100
AcDbZombieObject
 90
      499
 91
      501
 93
      532
310
4394DA1859195CC81BD98811DC985E5174090240C333333333333E33F0000000000000F901079024090741D01000000000000111010841D405064090740C02480A0340
1001
ACAD
1000
AcDbSavedByObjectVersion
1070
     0
  0
ACAD_PROXY_OBJECT
  5
699
102
{ACAD_REACTORS
330
684
102
}
330
684
100
AcDbZombieObject
 90
      499
 91
      501
 93
      476
310
41D4DAD95D18DA1E51840502408333333333333E33F0000000000000F901079024090741D01000000000000111010B41D405064090741802480A0340
1001
ACAD
1000
AcDbSavedByObjectVersion
1070
     0
  0
ACAD_PROXY_OBJECT
  5
691
102
{ACAD_REACTORS
330
684
102
}
330
684
100
AcDbZombieObject
 90
      499
 91
      501
 93
      412
310
41D51A1A58DAD95B90D409028333333333333E33F0000000000000F9010790141107004050150C41D405064090741402480A0350
1001
ACAD
1000
AcDbSavedByObjectVersion
1070
     0
  0
ACAD_PROXY_OBJECT
  5
68A
102
{ACAD_REACTORS
330
684
102
}
330
684
100
AcDbZombieObject
 90
      499
 91
      501
 93
      420
310
4255DA5C99599C985B595059028333333333333E33F0000000000000F90107901411070040501600405405064090740C02480A0340
1001
ACAD
1000
AcDbSavedByObjectVersion
1070
     0
  0
ACAD_PROXY_OBJECT
  5
69A
102
{ACAD_REACTORS
330
684
102
}
330
684
100
AcDbZombieObject
 90
      499
 91
      501
 93
      404
310
41560B54985E51940902404000000000000E03F0000000000000F9010740501907004050150841D405064090740C02480A1B40
1001
ACAD
1000
AcDbSavedByObjectVersion
1070
     0
  0
DICTIONARYVAR
  5
903
102
{ACAD_REACTORS
330
7FC
102
}
330
7FC
100
DictionaryVariables
280
     0
  1
1:1
  0
DICTIONARYVAR
  5
7FE
102
{ACAD_REACTORS
330
7FC
102
}
330
7FC
100
DictionaryVariables
280
     0
  1
Standard
  0
DICTIONARYVAR
  5
7FD
102
{ACAD_REACTORS
330
7FC
102
}
330
7FC
100
DictionaryVariables
280
     0
  1
Standard
  0
DICTIONARYVAR
  5
801
102
{ACAD_REACTORS
330
7FC
102
}
330
7FC
100
DictionaryVariables
280
     0
  1
2
  0
DICTIONARYVAR
  5
802
102
{ACAD_REACTORS
330
7FC
102
}
330
7FC
100
DictionaryVariables
280
     0
  1
1
  0
DICTIONARYVAR
  5
904
102
{ACAD_REACTORS
330
7FC
102
}
330
7FC
100
DictionaryVariables
280
     0
  1
1
  0
XRECORD
  5
6CB
102
{ACAD_REACTORS
330
6C9
102
}
330
6C9
100
AcDbXrecord
1000
#ffffff
  0
XRECORD
  5
6CC
102
{ACAD_REACTORS
330
6C9
102
}
330
6C9
100
AcDbXrecord
1000
FullColor
  0
ACAD_PROXY_OBJECT
  5
6CD
102
{ACAD_REACTORS
330
6C9
102
}
330
6C9
100
AcDbZombieObject
 90
      499
 91
      508
 93
       34
310
40C8804040
  0
ACAD_PROXY_OBJECT
  5
6CE
102
{ACAD_REACTORS
330
6C9
102
}
330
6C9
100
AcDbZombieObject
 90
      499
 91
      508
 93
       34
310
40C8804040
  0
ACAD_PROXY_OBJECT
  5
6CF
102
{ACAD_REACTORS
330
6C9
102
}
330
6C9
100
AcDbZombieObject
 90
      499
 91
      508
 93
       34
310
40C8804040
  0
ACAD_PROXY_OBJECT
  5
6D0
102
{ACAD_REACTORS
330
6C9
102
}
330
6C9
100
AcDbZombieObject
 90
      499
 91
      508
 93
       34
310
40C8804040
  0
XRECORD
  5
6D1
102
{ACAD_REACTORS
330
6C9
102
}
330
6C9
100
AcDbXrecord
1000
auto
  0
XRECORD
  5
6D2
102
{ACAD_REACTORS
330
6C9
102
}
330
6C9
100
AcDbXrecord
1000
auto
  0
XRECORD
  5
6D3
102
{ACAD_REACTORS
330
6C9
102
}
330
6C9
100
AcDbXrecord
1000
auto
  0
XRECORD
  5
6D4
102
{ACAD_REACTORS
330
6C9
102
}
330
6C9
100
AcDbXrecord
1000
auto
  0
XRECORD
  5
6D5
102
{ACAD_REACTORS
330
6C9
102
}
330
6C9
100
AcDbXrecord
1000
auto
  0
XRECORD
  5
6D6
102
{ACAD_REACTORS
330
6C9
102
}
330
6C9
100
AcDbXrecord
1000
auto
  0
XRECORD
  5
6D7
102
{ACAD_REACTORS
330
6C9
102
}
330
6C9
100
AcDbXrecord
1000
auto
  0
XRECORD
  5
6D8
102
{ACAD_REACTORS
330
6C9
102
}
330
6C9
100
AcDbXrecord
1000
auto
  0
ACAD_PROXY_OBJECT
  5
6D9
102
{ACAD_REACTORS
330
6C9
102
}
330
6C9
100
AcDbZombieObject
 90
      499
 91
      508
 93
       34
310
40C8804000
  0
ACAD_PROXY_OBJECT
  5
6DA
102
{ACAD_REACTORS
330
6C9
102
}
330
6C9
100
AcDbZombieObject
 90
      499
 91
      508
 93
       34
310
40C8804000
  0
ACAD_PROXY_OBJECT
  5
6DB
102
{ACAD_REACTORS
330
6C9
102
}
330
6C9
100
AcDbZombieObject
 90
      499
 91
      508
 93
       34
310
40C8804000
  0
ACAD_PROXY_OBJECT
  5
6DC
102
{ACAD_REACTORS
330
6C9
102
}
330
6C9
100
AcDbZombieObject
 90
      499
 91
      508
 93
       34
310
40C8804000
  0
XRECORD
  5
6DD
102
{ACAD_REACTORS
330
6C9
102
}
330
6C9
100
AcDbXrecord
 90
        0
  0
XRECORD
  5
6DE
102
{ACAD_REACTORS
330
6C9
102
}
330
6C9
100
AcDbXrecord
 90
        0
  0
XRECORD
  5
6DF
102
{ACAD_REACTORS
330
6C9
102
}
330
6C9
100
AcDbXrecord
 90
        0
  0
XRECORD
  5
6E0
102
{ACAD_REACTORS
330
6C9
102
}
330
6C9
100
AcDbXrecord
 90
        0
  0
XRECORD
  5
6E1
102
{ACAD_REACTORS
330
6C9
102
}
330
6C9
100
AcDbXrecord
1000
auto
  0
XRECORD
  5
6E2
102
{ACAD_REACTORS
330
6C9
102
}
330
6C9
100
AcDbXrecord
1000
auto
  0
XRECORD
  5
6E3
102
{ACAD_REACTORS
330
6C9
102
}
330
6C9
100
AcDbXrecord
1000
auto
  0
XRECORD
  5
6E4
102
{ACAD_REACTORS
330
6C9
102
}
330
6C9
100
AcDbXrecord
1000
auto
  0
XRECORD
  5
6E5
102
{ACAD_REACTORS
330
6C9
102
}
330
6C9
100
AcDbXrecord
1000
auto
  0
XRECORD
  5
6E6
102
{ACAD_REACTORS
330
6C9
102
}
330
6C9
100
AcDbXrecord
1000
auto
  0
XRECORD
  5
6E7
102
{ACAD_REACTORS
330
6C9
102
}
330
6C9
100
AcDbXrecord
1000
auto
  0
XRECORD
  5
6E8
102
{ACAD_REACTORS
330
6C9
102
}
330
6C9
100
AcDbXrecord
1000
auto
  0
XRECORD
  5
6E9
102
{ACAD_REACTORS
330
6C9
102
}
330
6C9
100
AcDbXrecord
 90
        1
  0
XRECORD
  5
6EB
102
{ACAD_REACTORS
330
6C9
102
}
330
6C9
100
AcDbXrecord
 40
10.0
  0
XRECORD
  5
6EC
102
{ACAD_REACTORS
330
6C9
102
}
330
6C9
100
AcDbXrecord
 40
10.0
  0
XRECORD
  5
6ED
102
{ACAD_REACTORS
330
6C9
102
}
330
6C9
100
AcDbXrecord
 40
10.0
  0
XRECORD
  5
6EA
102
{ACAD_REACTORS
330
6C9
102
}
330
6C9
100
AcDbXrecord
 40
10.0
  0
ACAD_PROXY_OBJECT
  5
6EE
102
{ACAD_REACTORS
330
6C9
102
}
330
6C9
100
AcDbZombieObject
 90
      499
 91
      508
 93
       34
310
40C8804000
  0
XRECORD
  5
6EF
102
{ACAD_REACTORS
330
6C9
102
}
330
6C9
100
AcDbXrecord
 90
        1
  0
XRECORD
  5
6F0
102
{ACAD_REACTORS
330
6C9
102
}
330
6C9
100
AcDbXrecord
 40
0.0
  0
XRECORD
  5
6F1
102
{ACAD_REACTORS
330
6C9
102
}
330
6C9
100
AcDbXrecord
 40
0.0
  0
XRECORD
  5
6F2
102
{ACAD_REACTORS
330
6C9
102
}
330
6C9
100
AcDbXrecord
1000
Portrait
  0
XRECORD
  5
6F3
102
{ACAD_REACTORS
330
6C9
102
}
330
6C9
100
AcDbXrecord
 40
297.0
  0
XRECORD
  5
6F4
102
{ACAD_REACTORS
330
6C9
102
}
330
6C9
100
AcDbXrecord
 40
210.0
  0
XRECORD
  5
6F5
102
{ACAD_REACTORS
330
6C9
102
}
330
6C9
100
AcDbXrecord
1000
1:1
  0
ACAD_PROXY_OBJECT
  5
6F6
102
{ACAD_REACTORS
330
6C9
102
}
330
6C9
100
AcDbZombieObject
 90
      499
 91
      508
 93
       34
310
40C8804040
  0
XRECORD
  5
6CA
102
{ACAD_REACTORS
330
6C9
102
}
330
6C9
100
AcDbXrecord
1000
3.13.1
  0
XRECORD
  5
6F7
102
{ACAD_REACTORS
330
6C9
102
}
330
6C9
100
AcDbXrecord
 90
        4
  0
DICTIONARY
  5
907
330
69F
100
AcDbDictionary
  3
ACAD_XREC_ROUNDTRIP
360
908
1001
ACAD
1000
TREAT_AS_HARD
1070
     1
  0
DICTIONARY
  5
905
330
69E
100
AcDbDictionary
  3
ACAD_XREC_ROUNDTRIP
360
906
1001
ACAD
1000
TREAT_AS_HARD
1070
     1
  0
DICTIONARY
  5
909
330
6A0
100
AcDbDictionary
  3
ACAD_XREC_ROUNDTRIP
360
90A
1001
ACAD
1000
TREAT_AS_HARD
1070
     1
  0
XRECORD
  5
908
102
{ACAD_REACTORS
330
907
102
}
330
907
100
AcDbXrecord
102
MATERIAL
148
0.0
149
0.0
149
0.0
 93
        0
 94
      127
282
     0
 72
     1
 77
     1
171
     1
175
     1
179
     1
273
     0
  0
XRECORD
  5
906
102
{ACAD_REACTORS
330
905
102
}
330
905
100
AcDbXrecord
102
MATERIAL
148
0.0
149
0.0
149
0.0
 93
        0
 94
      127
282
     0
 72
     1
 77
     1
171
     1
175
     1
179
     1
273
     0
  0
XRECORD
  5
90A
102
{ACAD_REACTORS
330
909
102
}
330
909
100
AcDbXrecord
102
MATERIAL
148
0.0
149
0.0
149
0.0
 93
        0
 94
      127
282
     0
 72
     1
 77
     1
171
     1
175
     1
179
     1
273
     0
  0
ENDSEC
  0
EOF
